Song name
# A B C D E F G H I J K L M N O P Q R S T U V W X Y Z

Chris Tomlin - Whom Shall I Fear tab

Standard Tuning

Intro:

e|---------------------------------10-10-----|------------------------------|
B|-6---6---8-8---6---8-8---6---8-8-------8-8-|---6---8-8--------------------|
G|---5---5-----5---5-----5---5---------------|-5---5-----(3x)--4b5r4--4-2-0-|
D|-------------------------------------------|------------------------------|
A|-------------------------------------------|------------------------------|
E|-------------------------------------------|------------------------------|

Verse 1:

e|-----------7----8------------------------------------8----------------------|
B|-8----8---------------------5---5---5---6/8--6---6--------------------------|
G|----------------------(x4)----5---5---5--------5---5------------------------|
D|---10---10---10---10--------------------------------------------------------|
A|----------------------------------------------------------------------------|
E|----------------------------------------------------------------------------| (x2)

Chorus 1:

The lead guitarist just keeps playing a C (e string 8th fret). He occasionally drops 
down to a B (e 7). Playing the chords sounds better.

Am7         G       C
I know who goes before me
Am7         G       C
I know who stands behind
Am7         F2                    G     C
The God of angel armies is always by my side
Am7         G       C
The One who reigns forever
Am7      G        C
He is a friend of mine
Am7         F2                     G     C
The God of angel armies is always by my side

Repeat the first half of the Intro.


Verse 2:
(Part 1) (x3)
(Part 2) (Part 1) (x2)
(Part 2)

e|(Part 1)---8---8---8-10-12-10---(Part 2)---8---8---8-10-12-10-8-----------|
B|---------8---8---8-----------------------8---8---8------------------------|
G|--------------------------------------------------------------------------|
D|--------------------------------------------------------------------------|
A|--------------------------------------------------------------------------|
E|--------------------------------------------------------------------------|

Back to Chorus 1.

Bridge:

 F2               C              G
And nothing formed against me shall stand
C                                F2
You hold the whole world in Your hands
            C          Am7   G
I'm holding on to Your promises
        F2
You are faithful
        G
You are faithful
 F2               C               G
And nothing formed against me shall stand
C                                F2
You hold the whole world in Your hands
            C          Am7   G
I'm holding on to Your promises
        F2
You are faithful
        G
You are faithful
       Am7     G/B
You are faithful

Back to Chorus 1 (All F2 chords become F). After Chorus 1, go to Chorus 2.

Chorus 2:

C
I know who goes before me
G/B
I know who stands behind
Am7                     F
The God of angel armies is always by my side
C
The One who reigns forever
G/B
He is a friend of mine
Am7                    F
The God of angel armies is always by my side
Am7        F                                  C
The God of angel armies is always by my side
Tap to rate this tab
# A B C D E F G H I J K L M N O P Q R S T U V W X Y Z