Song name
# A B C D E F G H I J K L M N O P Q R S T U V W X Y Z

Chris Tomlin - Jesus Son Of God tab

-------------------------------------------------------------------------------
			     Jesus, Son of God - Chris Tomlin
-------------------------------------------------------------------------------
Tabbed by: rukuus
E-mail: dck.erc@gmail.com

Tuning: EADGBe
Intro:
e|--------------------------------------2--2--2--------------------------------|
B|---4--4--4----------5--5--5----------------------------5--5--5---------------|
G|-4--4--4--44-4-4--4--4--4--44-4-4--4--4--4--44-4-4--4--4--4--44-4-4----------|
D|-----------------------------------------------------------------------------|
A|-----------------------------------------------------------------------------|
E|-----------------------------------------------------------------------------|

Verse 1:
You came down....           from heavens..          this earth...                was not...
e|---------------------------------------2--2--2-------------------------------|
B|---4--4--4-----------5--5--5-----------------------------5--5--5-------------|
G|-4--4--4--44-4-4---4--4--4--44-4-4--4--4--4--44-4-4---4--4--4--44-4-4--------|
D|-----------------------------------------------------------------------------|
A|-----------------------------------------------------------------------------|
E|-----------------------------------------------------------------------------|

A love like this               the world    had never  known
e|---------------------------------------2--2--2-----------2--2--2-------------|
B|---4--4--4-----------5--5--5-------------------------------------------------|
G|-----------4-4-4---4--4--4--44-4-4--4--4--4--44-4-4---4--4--4--44-4-4--------|
D|-6--6--6--6------------------------------------------------------------------|
A|-----------------------------------------------------------------------------|
E|-----------------------------------------------------------------------------|

A crown of thorns...         to mock....                forgiveness fell            upon Your face
e|---------------------------------------2--2--2-------------------------------|
B|---4--4--4-----------5--5--5-----------------------------5--5--5-------------|
G|-4--4--4--44-4-4---4--4--4--44-4-4--4--4--4--44-4-4---4--4--4--44-4-4--------|
D|-----------------------------------------------------------------------------|
A|-----------------------------------------------------------------------------|
E|-----------------------------------------------------------------------------|
A love like this...              the world had never known
e|---------------------------------------2--2--2-----------2--2--2-------------|
B|---4--4--4-----------5--5--5-------------------------------------------------|
G|-----------4-4-4---4--4--4--44-4-4--4--4--4--44-4-4---4--4--4--44-4-4--------|
D|-6--6--6--6------------------------------------------------------------------|
A|-----------------------------------------------------------------------------|
E|-----------------------------------------------------------------------------|

Verse 2:

You came down....           from heavens..          this earth...                was not...
e|---------------------------------------2--2--2-------------------------------|
B|---4--4--4-----------5--5--5-----------------------------5--5--5-------------|
G|-4--4--4--44-4-4---4--4--4--44-4-4--4--4--4--44-4-4---4--4--4--44-4-4--------|
D|-----------------------------------------------------------------------------|
A|-----------------------------------------------------------------------------|
E|-----------------------------------------------------------------------------|

A love like this               the world    had never  known
e|---------------------------------------2--2--2-----------2--2--2-------------|
B|---4--4--4-----------5--5--5-------------------------------------------------|
G|-----------4-4-4---4--4--4--44-4-4--4--4--4--44-4-4---4--4--4--44-4-4--------|
D|-6--6--6--6------------------------------------------------------------------|
A|-----------------------------------------------------------------------------|
E|-----------------------------------------------------------------------------|

A crown of thorns...         to mock....                forgiveness fell            upon Your face
e|---------------------------------------2--2--2-------------------------------|
B|---4--4--4-----------5--5--5-----------------------------5--5--5-------------|
G|-4--4--4--44-4-4---4--4--4--44-4-4--4--4--4--44-4-4---4--4--4--44-4-4--------|
D|-----------------------------------------------------------------------------|
A|-----------------------------------------------------------------------------|
E|-----------------------------------------------------------------------------|
A love like this...              the world had never known
e|---------------------------------------2--2--2-----------2--2--2-------------|
B|---4--4--4-----------5--5--5-------------------------------------------------|
G|-----------4-4-4---4--4--4--44-4-4--4--4--4--44-4-4---4--4--4--44-4-4--------|
D|-6--6--6--6------------------------------------------------------------------|
A|-----------------------------------------------------------------------------|
E|-----------------------------------------------------------------------------|


Repeat the same for verse 2


************************************

| /   slide up
| \   slide down
| h   hammer-on
| p   pull-off
| ~   vibrato
| +   harmonic
| x   Mute note
| b   Bend
| pb  Pre-bend
| br  Bend release
| pbr Pre-bend release
| brb Bend release bend

************************************
Tap to rate this tab
# A B C D E F G H I J K L M N O P Q R S T U V W X Y Z