Song name
# A B C D E F G H I J K L M N O P Q R S T U V W X Y Z

Chris Tomlin - How Great Is Our God tab

This is just the melody of how great is our god
Chris Tomlin sings it in a different key but this is
still just the basic tune. Enjoy =)


Verse
-------------------------------------------------|
------8----------------------8-------------------|
--7-------7--7---7h9--7---------7---7---7h9--7---|
-------------------------------------------------|
-------------------------------------------------|
-------------------------------------------------|
The splendor of a king     clothed in majesty
-------------------------------------------------|
-------------------------------------------------|
-4--5--4--5--4--5/7--4--5--4--5--4--5/7----------|
-------------------------------------------------|   2x
-------------------------------------------------|
-------------------------------------------------|
and trembles at his voice


Chorus
--------------------------------------------------|
-----8------------10----8h10p8------10/12--10--10-|
--7---------7-------------------------------------|
--------------------------------------------------|
--------------------------------------------------|
--------------------------------------------------|
how great   is    our     god        sing with me
-------------------------------------------------|
----8--8--------10---8---10/12--10--10-----------|
------------7------------------------------------|
-------------------------------------------------|
-------------------------------------------------|
-------------------------------------------------|
how great  is   our god   all will see
--------------------------------------------------|
---8--8--------8h10------------10---8h10p8--------|
-----------7-----------7--7-----------------------|
--------------------------------------------------|
--------------------------------------------------|
--------------------------------------------------|
how great how great    is our        God

Bridge
----------------------------------------------------|
---10/12--13--12---10---8h10p8---8---10--12--13--12-|
----------------------------------------------------|
----------------------------------------------------|
----------------------------------------------------|
----------------------------------------------------|
name       above   all   names  he is worthy of
-------------------------------------------------|
---10--8h10p8---8--10--10/12--13--12-------------|
-------------------------------------------------|
-------------------------------------------------|
-------------------------------------------------|
-------------------------------------------------|
   all praise  and my heart will sing
-------------------------------------------------|
-------8h10------------10----8h10-----8b----8----|
---7------------7--7-----------------------------|
-------------------------------------------------|
-------------------------------------------------|
-------------------------------------------------|
how great        is    our god
Tap to rate this tab
# A B C D E F G H I J K L M N O P Q R S T U V W X Y Z