Song name
# A B C D E F G H I J K L M N O P Q R S T U V W X Y Z

Chris Tsuper And Nicole Hyala - Mahal Kita Kasi tab

i've tried to copy the chords on the guy playing here -- http://www.youtube.com/
watch?v=AZAHBNjtT78#809189D2-7517-4af1-BAF0-1A36C3BB8640&numResults=0&command=
%20m_objCurrentDocument.getElementById%28%27veohrecs_fr%27%29.style.height%20%3D
%20%27107px%27%3B%20m_objCurrentDocument.getElementById%28%27Veoh_SpaceDiv
%27%29.style.height%20%3D%20%2712px%27%3B%20m_objCurrentDocument.getElementById
%28%27VeohCompass.LoadingDiv%27%29.style.height%20%3D%20%270px%27%3B
%20m_objCurrentDocument.getElementById%28%27VeohCompass.LoadingDiv
%27%29.style.display%20%3D%20%27none%27%3B

though i didn't manage to copy it perfectly, i've still got a lil bit of the pattern of 
chords.. hope you guys, get more patterns from this tab.. and post it again, as a revision.


INTRO

e|--7-7-7---9-9-9---6--6-----7-7-7---7-7-7---9--11--|
B|--7-7-7---9-9-9---7--7-----7-7-7---9-9-9---9--11--|
G|--8-8-8---9-9-9---9--9-----8-8-8---8-8-8---9--11--|
D|--9-9-9--------------------9-9-9---9-9-9----------|
A|--------------------------------------------------|
E|--------------------------------------------------|


NOTE: [i'm not sure with the 1st verse but it sounded like this]


e|--7----------9-----9-----|
B|--7----------9-----11----|
G|--8----13----10----9-----|
D|--9----13----9-----11----|
A|--9----11----11----9-----|
E|--7----------9-----------|


And that's all i've managed to copy from the video.. i'm just a noob.. sorry.. hope you 
have an idea how to play the "Mahal kita kasi" song.. and.. please... SHARE YOUR TABS... 
:)
Tap to rate this tab
# A B C D E F G H I J K L M N O P Q R S T U V W X Y Z