Song name
# A B C D E F G H I J K L M N O P Q R S T U V W X Y Z

Chris Wollard - No Exception tab

Chris Wollard
No Exception

90% Correct
Learned this song by ear
You figure out the strumming. It's not too hard. Just listen to the song
Times are approximates

Intro/Verse 0:00-0:39
e------------------------------------------------|
b------------------------------------------------|
g---7--------------------------------------------|
d---7--------7--------9--------5-----------------|
a---5--------7--------9--------5-----------------|
e------------5--------7--------3-----------------|


Pre-Chorus 0:40-1:00
e----------------------------------------------------------------------------------------|
b----------------------------------------------------------------------------------------|
g----------------------------------------------------------------------------------------|
d---5-------12---11--9-------7--------12---11----9---------------------------------------|
a---5-------12---11--9-------7--------12---11----9----x3---------------------------------|
e---3-------10---9---7-------5--------10----9----7---------------------------------------|

The 4th time 1:01-1:07
e--------------------------------------------------------------------------------------------|
b--------------------------------------------------------------------------------------------|
g--------------------------------------------------------------------------------------------|
d---5-------12---11--9-------7--------12-12-12-11-9------------------------------------------|
a---5-------12---11--9-------7---------------------------------------------------------------|
e---3-------10---9---7-------5---------------------------------------------------------------|


Chorus 1:07-1:14
e----------------------------------------------------------------------------------------|
b----------------------------------------------------------------------------------------|
g------7-----9---7-------12-12-12-11-9--------------7-----9~-------12-12-12-11-9---------|
d--/9-----9-------------------------------------/9-----9---------------------------------|
a----------------------------------------------------------------------------------------|
e----------------------------------------------------------------------------------------|

Chorus Continued 1:15-1:19
e-------------------------------------------------------------------------------------|
b-------------------------------------------------------------------------------------|
g------7-----9----7------12-12-12-11-9--------------7-----9~--------------------------|
d--/9-----9-------------------------------------/9-----9------------------------------|
a-------------------------------------------------------------------------------------|
e-------------------------------------------------------------------------------------|

Repeat Verse 1:20-1:47

Repeat Pre-Chorus 1:48-2:14

Chorus 2:15-2:35
e-----------------------------------------------------------------------------------------------|
b-----------------------------------------------------------------------------------------------|
g------7-----9---7-------12-12-12-11-9---------------7-----9~-------12-12-12-11-9--x3-----------|
d--/9-----9-------------------------------------/9-----9----------------------------------------|
a-----------------------------------------------------------------------------------------------|
e-----------------------------------------------------------------------------------------------|

Chorus Continued 2:36-2:45
e-----------------------------------------------------------------------------------------------|
b-----------------------------------------------------------------------------------------------|
g------7-----9---7-------12-12-12-11-9---------------7-----9~-----------------------------------|
d--/9-----9-------------------------------------/9-----9----------------------------------------|
a-----------------------------------------------------------------------------------------------|
e-----------------------------------------------------------------------------------------------|


That's it
Fairly easy song once you get the feel for the strumming pattern
Any corrections leave in comments

Tabbed by Xavier C. (no.1shredder)
Tap to rate this tab
# A B C D E F G H I J K L M N O P Q R S T U V W X Y Z