Song name
# A B C D E F G H I J K L M N O P Q R S T U V W X Y Z

Chris Wood - Johnny East tab

|------------------------------------------------------|
|-Artist----:-Chris-Wood-------------------------------|
|-Track-----:-Johnny East------------------------------| 
|-Album-----:-A Handmade Life--------------------------|
|-Tabbed-by-:-Mingo------------------------------------| 
|-Capo-on---:-1----------------------------------------| 
|------------------------------------------------------|


|--INTRO----------------------------------------------------------|

e|----0h2---5--2--5s7--5--2p0----------------------0--0h2--------|
B|----3-----3--3--3-0--3--3---3-------3----------3----3----------|
G|----2-----0-----0----0--0---0---2s4---0----2h4-----------------|
D|----0---------------------------0-----0----0-------------------|
A|---------------------------------------------------------------|
E|---------------------------------------------------------------|

e|----0h2---5--2--5--7s5--2p0----------------------0--0h2--------|
B|----3-----3--3--3--0-3--3---3-------3----------3----3----------|
G|----2-----0-----0----0--0---0---2s4---2h4--2h4-----------------|
D|----0---------------------------0-----0----0-------------------|
A|---------------------------------------------------------------|
E|---------------------------------------------------------------|


e|------------------0--0h2--------------------0----0------------|
B|-----3----------3----3---------3----------3----3--------------|
G|-2s4---2h4--2h4------------2s4---2h4--2h4------2--2h4-2-------|
D|-0-----0----0--------------0-----0----0--------0--------------|
A|--------------------------------------------------------------|
E|--------------------------------------------------------------|

|--CHORDS-------------------------------------------------------|

D 
The word is out from street to street
G                         D
Little Johnny East is Dead
D      
They wrapped him in his winding sheet
G                         D
and set a stone above his head
G            D
Sleep Johnny Sleep
G            D
Sleep Johnny Sleep

D
The relics of his reckless games
G                       D
little Johnny east is dead
D
His cars and trucks and ships and planes
G                        D
are in a box beneath his bed
G            D
Sleep Johnny Sleep
G            D
Sleep Johnny Sleep
D
the Sun beats down and the winter rages
G                     D
little Johnny east is dead
D
And all the dust from all the ages
G                     D
settles down upon his head
G            D
Sleep Johnny Sleep
G            D
Sleep Johnny Sleep
D
There comes a time we cannot name
G                     D
little Johnny east is dead
D
When cars and trucks and ships and planes
G                                D
Will stain the seams of rock rust red.
G            D
Sleep Johnny Sleep
G            D 
Sleep Johnny Sleep

D
When bed and toys and blood and bones
G                     D
little Johnny east is dead
D
Locked inside a seam of stone
G                                 D
where shoals of shimmering fishes roam
D
and unimagined sharks
G           D  
cruise over head
G            D
Sleep Johnny Sleep
G            D
Sleep Johnny Sleep
G            D
Sleep Johnny Sleep

Outro
----------------

e|----0h2---5--2--5s7--5--2p0-----------------------------0------|
B|----3-----3--3--3-0--3--3---3--------------3---------3-----3---|
G|----2-----0-----0----0--0---0---4p2-2--4---0----2h4--------2---|
D|----0---------------------------0---0--0--------0----------0---|
A|-----------------------------------------------------------0---|
E|---------------------------------------------------------------|
Tap to rate this tab
 
# A B C D E F G H I J K L M N O P Q R S T U V W X Y Z