Guitaretab - guitar tabs
Song name
# A B C D E F G H I J K L M N O P Q R S T U V W X Y Z

Chrissie Hynde - Middle Of The Road tab

Intro

--5-3-0--5-3-0-|
--5-3-0--5-3-0-|
--6-4-1--6-4-1-|
--7-5-2--7-5-2-|
--7-5-2--7-5-2-|
--5-3-0--5-3-0-|

vers

---------------------------------|
---------------------------------|
----------------------7-5--------|
------7-5-----------7-----5------|
----7-----5---5---5---------3----|
--5---------3-----------------5--|

solo

--5----------------------------------------------|
-----8----------8-----8---5----------------------|
-------------------------------------------------|
-------------------------------------------------|
-------------------------------------------------|
-------------------------------------------------|

[ Tab from: http://www.guitaretab.com/c/chrissie-hynde/145052.html ]
--5----------------------------------------------|
-----8----------8-----8--5-----------------------|
-----------------------------7-------------------|
-------------------------------------------------|
-------------------------------------------------|
-------------------------------------------------|


-------------------------------------------------|
----5-----------5-----------5--------------------|
--7---7-5----7-----7-5-----7----7-5-----7--7-5---|
-----------7------------7------------7-----------|
-------------------------------------------------|
-------------------------------------------------|


-------------------------------------------------|
----5-------------5---------------5----------8---|
--7---7-5------7-----7--5------7----7--5---------|
-----------7---------------7---------------------|
-------------------------------------------------|
-------------------------------------------------|