Song name
# A B C D E F G H I J K L M N O P Q R S T U V W X Y Z

Christel Alsos - Please Say tab

"Please Say" - Christel Alsos

I love this song! 

Standard tuning
Capo on 1. 



Intro:
                                 
|---------------------------------------------------------------------------|
|--3-------5------7-------8----8------3-----5-----7------1----1-------------|
|----0-------0------0--------0---0------0-----0-----0--------0---0----------|
|---------------------------0-----0-------------------------2------2--------|
|--2-------3------5-------7-----------2-----3-----5------0------------------|
|---------------------------------------------------------------------------|

|--------------------------------------------------15b----------------------|
|--3-------5------7-------8------10----12--12-------------------------------|
|----0-------0------0--------0------0-----0--0------------------------------|
|---------------------------0------0-----0----0-----------------------------|
|--2-------3------5-------7------9-----10-----------------------------------|
|---------------------------------------------------------------------------|



Verse:
 
So many times I’ve been            caught up in lies

   G                                Cadd9                  
|---------------------------------------------------------------------------|
|------3-------------------------------3------------------------------------|
|--------2--------------------------------2---------------------------------|
|----0-----0-------------------------2------2-------------------------------|
|----------------------------------3----------------------------------------|
|--3------------------------------------------------------------------------|

Though I know they don’t lead    anywhere

G                                Cadd9                  
|---------------------------------------------------------------------------|
|------3-------------------------------3------------------------------------|
|--------2--------------------------------2---------------------------------|
|----0-----0-------------------------2------2-------------------------------|
|----------------------------------3----------------------------------------|
|--3------------------------------------------------------------------------|

But you’d understand if you      knew how to mend

G                                Cadd9                  
|---------------------------------------------------------------------------|
|------3-------------------------------3------------------------------------|
|--------2--------------------------------2---------------------------------|
|----0-----0-------------------------2------2-------------------------------|
|----------------------------------3----------------------------------------|
|--3------------------------------------------------------------------------|

A heart that cannot be           found

G                                Cadd9                  
|---------------------------------------------------------------------------|
|------3-------------------------------3------------------------------------|
|--------2--------------------------------2---------------------------------|
|----0-----0-------------------------2------2-------------------------------|
|----------------------------------3----------------------------------------|
|--3------------------------------------------------------------------------|

Continue throughout the song... 


I say ”Thanks, I am fine” – I can handle the line
Between the good, the good and the bad
No I don’t need a hand, I’m the queen of the land
All ready to burst – Please sa

Ref: 

(Repeat the intro.) 

Though you’re right here              You feel so lost
|---------------------------------------------------------------------------|
|--3-------5------7-------8----8------3-----5-----7------1----1-------------|
|----0-------0------0--------0---0------0-----0-----0--------0---0----------|
|---------------------------0-----0-------------------------2------2--------|
|--2-------3------5-------7-----------2-----3-----5------0------------------|
|---------------------------------------------------------------------------|

But just so you know
|---------------------------------------------------------------------------|
|--3-------5------7-------8------10----12--12-------------------------------|
|----0-------0------0--------0------0-----0--0------------------------------|
|---------------------------0------0-----0----0-----------------------------|
|--2-------3------5-------7------9-----10-----------------------------------|
|---------------------------------------------------------------------------|


I’m still right here
I'm still right here


Tabbed by Kristine Friksen
Email me if you have any questions or corrections. 
Tap to rate this tab
# A B C D E F G H I J K L M N O P Q R S T U V W X Y Z