Song name
# A B C D E F G H I J K L M N O P Q R S T U V W X Y Z

Christian Bautista - Hands To Heaven tab

Help us improve GuitareTab! Take a short survey!
Intro:
e|--2------0--0h1--2----2--2h3--5--2--3-----10-----5--2--3-----10---------|
B|--3----3---------3--3---------0--------3------3--0--------3------8--7--3|
G|--2--2-----------0------------0------------------0----------------------|
D|--0--------------0------------0------------------0----------------------|
A|-----------------2------------------------------------------------------|
E|------------------------------------------------------------------------|


e|--2--2--3--5-----0--5--3--2-----0--2--2--3--5-----0--5--2--3-----10---|
B|--3-----------3-----0--------3-----3-----------3-----0--------3-------|
G|--2-----------------0--------------2-----------------0----------------|
D|--0-----------------0--------------------------------0----------------|
A|----------------------------------------------------------------------|
E|----------------------------------------------------------------------|


Verse one:
stram nyo nlng d ko n alam e i pluck e,... hangang dun lng 2 sa "so raise your hands.....someday"
e|--2----2----3----00---------------|
B|--3----3----3----02---------------|
G|--2---------0----00---------------|
D|------------2----22---------------|
A|-------2----3---------------------|
E|----------------------------------|


tapos ito naman..

e|---2------2-----|
B|---3------3-----|
G|---2------------|
D|----------------|
A|----------2-----|
E|----------------|

ito ung sa "tonight i need your sweet caress......sadness"

Tabbed by paul=)
enjoy!
Related for Hands To Heaven tab