Song name
# A B C D E F G H I J K L M N O P Q R S T U V W X Y Z

Christian Death - Deathwish tab

A great song by a great Deathrock band...
Note that I`ve tabbed the version from the album "The Iron Mask" tho` I think it goes 
same in any other..


INTRO:
E-----------------------------------------------------------|
B-----------------------------------------------------------|
G-------------5--4-------------5--4-------------------------|
D-2-222-222-2-5--4-2-222-222-2-5--4-------------------------|
A-2-222-222-2-3--2-2-222-222-2-3--2-------------------------|
E-0-000-000-0------0-000-000-0------------------------------|    X2

*Palm mute the E power chord (022)

VERSE:
E---------------------|
B---------------------|
G---------------------|
D---------------------|
A-7-----7\---5--5\--2-|
E---------------------|  X3

E---------------------|
B---------------------|
G---------------------|
D---------------------|
A-2-----2/---5--5\--2-|
E---------------------|  X1

E---------------------|
B---------------------|
G---------------------|
D---------------------|
A-7-----7\---5--5\--2-|
E---------------------|  X3

E---------------------|
B---------------------|
G---------------------|
D---------------------|
A-2-----2/---5--5\--2-|
E---------------------|  X1


E-----------------------------------------------------------|
B-----------------------------------------------------------|
G-------------5--4-------------5--4-------------------------|
D-2-222-222-2-5--4-2-222-222-2-5--4-------------------------|
A-2-222-222-2-3--2-2-222-222-2-3--2-------------------------|
E-0-000-000-0------0-000-000-0------------------------------|
  "Lost in the darkness,lost in today..."

CHORUS:
E-----------------------------------------------------------|
B-----------------------------------------------------------|
G-----------------------------------------------------------|
D-----------------------------------------------------------|
A-------3\2----------3\2----------3\2----------3\2----------|
E-0--2/3---3\2-0--2/3---3\2-0--2/3---3\2-0--2/3---3\2-------|
    "You can only lose it to you mind..."

NOTE:I prefer playing the chorus all in power chords,but it can work this way too.

E------------------------------|
B------------------------------|
G------------------------------|
A-------3\2----------3\2-------|
E-0--2/3---3\2-0--2/3---3\2--- |
E------------------------------|
  "Waves and waves of tranquility is"
E------------------------------|
B------------------------------|
G------------------------------|
D------------------------------|
A-------3\2----------3\2-------|
E-0--2/3---3\2-0--2/3---3\2----|
  "hard on your innocence"


E------------------------------|
B------------------------------|
G------------------------------|
D-7-------------5--------------|
A-7-------------5--------------|
E-5-------------3--------------|
  "Discarding all that-was before"

E--------------------|
B--------------------|
G-----5-4-----5-4----|
D-2-2-5-4-2-2-5-4----|
A-2-2-3-2-2-2-3-2----|
E-0-0-----0-0--------|    X2
    "Let`s crawl inside"

E-----------------------------------------------------------|
B-----------------------------------------------------------|
G-------------5--4-------------5--4-------------------------|
D-2-222-222-2-5--4-2-222-222-2-5--4-------------------------|
A-2-222-222-2-3--2-2-222-222-2-3--2-------------------------|
E-0-000-000-0------0-000-000-0------------------------------|

VERSE: (look above)  "La virginal skin..."

BRIDGE:
E------------------------------------------------------|
B------------------------------------------------------|
G------------------------------------------------------|
D------------------------------------------------------|
A-14---14-14--16---16-16--17---17-17--19---19-19-------|
E------------------------------------------------------|
    "No one outside knows..."
E------------------------------------------------------|
B------------------------------------------------------|
G------------------------------------------------------|
D------------------------------------------------------|
A-21---21-21--21b-21b-21b-21b-21b-21b-21p-19h---21-21--|
E--------------------------------------------22p-------|
    "To me      to be               set free"


NOTE: the solo part is not very precise in the ending,but that`s for the 
do it better ^^;


E-----------------------------------------------------------|
B-----------------------------------------------------------|
G-------------5--4-------------5--4-------------------------|
D-2-222-222-2-5--4-2-222-222-2-5--4-------------------------|
A-2-222-222-2-3--2-2-222-222-2-3--2-------------------------|
E-0-000-000-0------0-000-000-0------------------------------|  X2

CHORUS: (look above)

Well that should be it,hope it helped.

If you need any other song by Christian Death or Shadow Project to tab,mail me at 
 I`ll see what I can do.
Tap to rate this tab
# A B C D E F G H I J K L M N O P Q R S T U V W X Y Z