Song name
# A B C D E F G H I J K L M N O P Q R S T U V W X Y Z

Christian Sinding - Rustle Of Spring Op 32 No 3 tab

Artist: Christian Sinding (1856-1941)
Title:  Rustle of Spring Op 32 No 3

Tab:    donwells@hotmail.com
Date:   March 12, 2003

timing 2/4

   | . | .    | . | .    | . | .    | . | .
||-5---0--5-|-3--------|-0---3----|--------0-|
||-5--------|-----1--3-|-0--------|----1--1--|
|*-0--------|-0--------|-0--------|---0--0---|
|*----------|----------|----------|--2--2----|
||-3--------|----------|-3--------|-3--------|
||----------|----------|----------|----------|

   | . | .    | . | .    | . | .    | . | .
 |-5---0--5-|-3--------|-0---3----|--------0-|
 |-5--------|-----1--3-|-0--------|----0--0--|
 |-0--------|-0--------|-0--------|---0--0---|
 |----------|----------|-2--------|--2--2----|
 |-3--------|----------|----------|----------|
 |----------|----------|----------|-0--------|

   | . | .    | . | .    | . | .    | . | .
 |-7---3--5-|-7--------|-7---3--5-|-7--------|
 |-0--------|-4--------|-0--------|-4--------|
 |-0--------|-4---4----|-0--------|-4---4----|
 |----------|-4--------|----------|-4--------|
 |----------|----------|----------|----------|
 |-0--------|----------|-0--------|----------|

   | . | .    | . | .    | . | .    | . | .
 |-7---5----|-10-------|-3---0----|----------|
 |-0------8-|-7---3----|----3---0-|-3---0----|
 |-0--------|----------|-0--------|----0-----|
 |----------|-0---0----|-----2----|-0------1-|
 |----------|----------|----------|-----2----|
 |-0--------|----------|----------|----------|

   | . | .    |   .   |   .     |   .   |   .     | . | .
 |----------|-----------------|-------------0--|-(0)--1----|
 |----------|-0---------------|----------------|------0----|
 |--------0-|---------------2-|-3-------2-0----|-----------|
 |-2---4----|---------2-4-5---|----------------|-----------|
 |----------|-----------------|-4--------------|--4--------|
 |-0--------|-0---------------|-0--------------|-----------|

   | . | .    |   .   |   .     |   .   |   .    | . | .
 |-2--------|-----------------|-------------2--|-2---3----|
 |----------|-2-------------0-|-1-------0------|-----2----|
 |-3---1--2-|-----------1-2---|-----------2----|-----3----|
 |-4--------|---------4-------|----------------|-1---1----|
 |----------|-----------------|----------------|----------|
 |----------|-----------------|----------------|----------|

   | . | .    | . | .    | . | .    | . | .    | . | .    | . | .
 |-4--------|----------|-0--------|----------|-3---3----|-3---3----||
 |-1------1-|-4--------|-1---3----|-1---0----|-0---0----|-0---0----||
 |-1---3----|-----1----|-0--------|--------2-|-0--------|----------*|
 |----------|----------|-2--------|----------|-----4----|-3---2--0-*|
 |----------|----------|-3--------|-3--------|----------|----------||
 |----------|----------|----------|----------|----------|----------||

   | . | .    | . | .    | . | .     | . |  .
 |----------|----------|----------|------------||
 |-1--------|----------|-1--------|-(1)--------||
 |-0--------|-----0----|-0--------|-(0)--------||
 |-2--------|-2--------|-2--------|-(2)--------||
 |-3---3----|----------|-3--------|-(3)--------||
 |----------|----------|----------|------------||
 

************************************************************
originally generated using Power Tab Editor by Brad Larsen
http://powertab.guitarnetwork.org
reformatted 17 March 2003
************************************************************

Tap to rate this tab
 
# A B C D E F G H I J K L M N O P Q R S T U V W X Y Z