Song name
# A B C D E F G H I J K L M N O P Q R S T U V W X Y Z

Christian - Only By Grace tab

-------------------------------------------------------------------------------
			     Only by grace
-------------------------------------------------------------------------------
Tabbed by: Edvind
Email: Edvind@live.no

Tuning: Standard; EADGBe

e|--3-3-3-3---1-0---0----------1-1-1-1-0-1-3---------------------------------|  
B|----------------3----------------------------------------------------------|  
G|---------------------------------------------------------------------------|x2
D|---------------------------------------------------------------------------|
A|---------------------------------------------------------------------------|
E|---------------------------------------------------------------------------|

e|--7-7-7-7-5-7--7--8---8--5--1--3---------3-3-3-3---1-0---0-----------------|
B|-------------------------------------------------------3-------------------|
G|---------------------------------------------------------------------------|
D|---------------------------------------------------------------------------|
A|---------------------------------------------------------------------------|
E|---------------------------------------------------------------------------|

e|--1--0---------------------------------------------------------------------|
B|--------3--1--0--1---------------------------------------------------------|
G|---------------------------------------------------------------------------|
D|---------------------------------------------------------------------------|
A|---------------------------------------------------------------------------|
E|---------------------------------------------------------------------------|



| /  slide up
| \  slide down
| h  hammer-on
| p  pull-off
| ~  vibrato
| +  harmonic
| x  Mute note
===============================================================================
Tap to rate this tab
 
# A B C D E F G H I J K L M N O P Q R S T U V W X Y Z