Song name
# A B C D E F G H I J K L M N O P Q R S T U V W X Y Z

Christian - Amazing Grace tab

This is my first tab, and I'm not a great guitarist, so don't judge too
harshly please. Comments and corrections appreciated.

(Standard Tuning)
(Chords above to guide finger placement. Not always exact though.)

  D           D         E6        A          D           D         A
e-------------2-----2---0--------------------------------2-----2---0---5--|
B-----3---------3-----------3------0-------------3---------3---------2----|
G-------2---------2-------2---2--------2-----2-----2---------2---------2--|
D-----0---0---4-----4---2---0------------2-----0-0---0---4-----4---2------|
A-0--------------------------------2---0-----0----------------------------|
E-------------------------------------------------------------------------|


  D         D         A         ?           D           D         E6
e-2---------2---2---------------------------------------2-----4---0-------|
B---3---3---------3-------0-----3---------------3---------3-----------3-3-|
G-----2-------2-------2-------------2---2---2-----2---------2-------2-----|
D-4---------4---4-0-----2---0---0-----2---------0---0---4-----4---2-----0-|
A---------------------0---2-------2-0-------0-----------------------------|
E-------------------------------------------------------------------------|

That is the basic tune. I'm sure smart you can figure out the rhythm.
Tap to rate this tab
# A B C D E F G H I J K L M N O P Q R S T U V W X Y Z