Song name
# A B C D E F G H I J K L M N O P Q R S T U V W X Y Z

Christina Aguilera - Silent Night tab

Christina Aguilera
Silent Night
Tuning: Standard
Transcribed by Soch Hean

The harp takes over most of the song.

Intro: (Harp)
|---------5-----9----------------|
|-----5-----5-----10-------------|
|---6---6------------11-9--7-9---|
|--------------------------------|
|-0------------------------------|
|--------------------------------| (x2)

|---------5-----9---------------------------5-----9-------12-----------|
|-----5-----5-----10--------------------5--------10-------14-----------|
|---6---6------------10-9--7-9------6-6---6------11-------14-----------|
|-------------------------------------------------9-------14-----------|
|-0-----------------------------------------------9-------12-----------|
|----------------------------------------------------------------------|


-Play this riff in parts of the song-
(This is one of the main licks in the song)
|---------5-----9----------------|
|-----5-----5-----10-------------|
|---6---6------------11-9--7-9---|
|--------------------------------|
|-0------------------------------|
|--------------------------------|
Tap to rate this tab
# A B C D E F G H I J K L M N O P Q R S T U V W X Y Z