Song name
# A B C D E F G H I J K L M N O P Q R S T U V W X Y Z

Christina Aguilera - Hurt tab

I was trying to find the intro for the song and I don't think it's on here yet.. i've 
listened to the song and it sounds alright :)



E-15--12--15--12--14--11--14--11--15--12--15--12--17--15--14---15----------|
B---12--12--12--12--12--12--12--12--12--12--12--12-------------------------|
G--------------------------------------------------------------------------|
D---------------------------------------------------12--12--(12)--12-------|
A--------------------------------------------------------------------------|
E--------------------------------------------------------------------------|

E--15--12--15--12--14--11--14----------------------------------------------|
B--------------------------------------------------------------------------|
G----14--14--14--14--13--13------------------------------------------------|
D--------------------------------------------------------------------------|
A--------------------------------------------------------------------------|
E--------------------------------------------------------------------------|
Tap to rate this tab
 
# A B C D E F G H I J K L M N O P Q R S T U V W X Y Z