Song name
# A B C D E F G H I J K L M N O P Q R S T U V W X Y Z

Christina Aguilera - Pero Me Acuerdo De Ti tab

Intro
e|-----------------------------------------------------------------------|
B|-11-11-11-11--14----------------------------11h12-11-11-9-9------------|
G|------------13-11--10h11-10-10------10h11-----------------------------|
D|---------------------------------11--------------------------11h12-11-8|
A|-----------------------------------------------------------------------|
E|-----------------------------------------------------------------------|

After 1st Chorus 1:49
e|--------------------------------------------------|
B|--------------------------------------------------|
G|-11-10~-11~~-10~-11~-10~---------11~~-------------|
D|-------------------------11/13~-------------------|
A|--------------------------------------------------|
E|--------------------------------------------------|

Solo 3:01
e|----------------------------------------------------------------------------|
B|-11-11-11-12-10----------------------------1512h13p12-10-------------------|
G|----------------12-12/16-16h17p16-12-11-12----------------11-11h12p11-10-11-|
D|----------------------------------------------------------------------------|
A|----------------------------------------------------------------------------|
E|----------------------------------------------------------------------------|

e|---13--------------------------------------------10------------------------------------------|
B|--13--16-151515-13-12-13-12h13p12---------------10--13-12-13-12h13p12-10-9-10-151515-13-12-10|
G|-13-------------------------------12-11-12/17--10-----------------------------141414-12-12-9-|
D|---------------------------------------------------------------------------------------------|
A|---------------------------------------------------------------------------------------------|
E|---------------------------------------------------------------------------------------------|
Tap to rate this tab
# A B C D E F G H I J K L M N O P Q R S T U V W X Y Z