Song name
# A B C D E F G H I J K L M N O P Q R S T U V W X Y Z

Christina Aguilera - Just A Fool tab

-------------------------------------------------------------------------------
            Just A Fool - Christina Aguilera ft Blake Shelton
-------------------------------------------------------------------------------
Tabbed by:Chetwy
E-mail:alexaabecassisforever@hotmail.com

Tuning:Capo on 5th fret

Intro : ( Picking)            (Strum)

e|------------2h3----------------2---------------------------------------------------|
B|---------3------3---------3----3----------------(x2)-------------------------------|
G|-----2------------2----2-------2---------------------------------------------------|
D|--0------------------0---------0---------------------------------------------------|
A|-----------------------------------------------------------------------------------|
E|-----------------------------------------------------------------------------------|

Verse 1 (Picking)            (Strum)     (Picking)            (Strum)

e|------------2h3----------------2-------------0----------------0--|
B|---------3------3---------3----3-----------2---2--------2-----2--|
G|-----2------------2----2-------2---------2-------2---2--------2--|
D|--0------------------0---------0-------2----------2-----------2--|
A|-----------------------------------------------------------------|
E|-----------------------------------------------------------------|
Another shot of whisky please bartender, Keep it coming til I don't remember at all,

           (Picking)            (Strum) (Picking)            (Strum)
e|---------------0----------------0----------------1------------1------1h0-------------|
B|-----------1------1---------1---1-------------1----1-------1--1----------------------|
G|-------2------------2-----2-----2----------2----------2--2----2----------------------|
D|---2--------------------2-------2-------0---------------0------0---------------------|
A|-------------------------------------------------------------------------------------|
E|-------------------------------------------------------------------------------------|
How bad it hurts when you're gone

 (Picking)            (Strum)     (Picking)            (Strum)

e|------------2h3----------------2-------------0----------------0--|
B|---------3------3---------3----3-----------2---2--------2-----2--|
G|-----2------------2----2-------2---------2-------2---2--------2--|
D|--0------------------0---------0-------2----------2-----------2--|
A|-----------------------------------------------------------------|
E|-----------------------------------------------------------------|
Turn the music up a little bit louder, Just gotta get past the midnight hour

        (Picking)            (Strum) (Picking)            (Strum)
e|---------------0----------------0----------------1------------1----------------------|
B|-----------1------1---------1---1-------------1----1-------1--1----------------------|
G|-------2------------2-----2-----2----------2----------2--2----2----------------------|
D|---2--------------------2-------2-------0---------------0------0---------------------|
A|-------------------------------------------------------------------------------------|
E|-------------------------------------------------------------------------------------|
Maybe tomorrow it won't Be This Hard

Bridge :

e|------1--------1-----------------3------------3---------------------------------------|
B|----1---1----1---1------------0-----0-------0----0------------------------------------|
G|-2--------2-2------2-------0----------0---0--------0----------------------------------|
D|0----------0------------0---------------0---------------------------------------------|
A|--------------------------------------------------------------------------------------|
E|--------------------------------------------------------------------------------------|
But Who am I kidding I know what I'm missing

Chorus : ( Only Picking )
e|------------2---------------2----------------------------0---------0-----|
B|---------3-----3---------3----3----------------------2-----2-----2---2---|
G|-----2------------2----2-------2-------------------2--------2---2-----2--|
D|--0------------------0---------------------------2-----------2-----------|
A|-------------------------------------------------------------------------|
E|-------------------------------------------------------------------------|
You I had my heart set on you But nothing else hurts like you

e|-------1---------1-------------3-----------3------3\2--------------------------------|
B|-----2---2-----2--2----------0----0------0-------------------------------------------|
G|---2-------2--2-----2------0--------0---0--------------------------------------------|
D|-0----------0------------0------------0----------------------------------------------|
A|-------------------------------------------------------------------------------------|
E|-------------------------------------------------------------------------------------|
do Who knew that love was so cruel


e|------------2---------------2----------------------------0---------0-----|
B|---------3-----3---------3----3----------------------2-----2-----2---2---|
G|-----2------------2----2-------2-------------------2--------2---2-----2--|
D|--0------------------0---------------------------2-----------2-----------|
A|-------------------------------------------------------------------------|
E|-------------------------------------------------------------------------|
And I Waited and waited so long For someone to never come

e|-------1---------1-------------3-----------3------3\2--------------------------------|
B|-----2---2-----2--2----------0----0------0-------------------------------------------|
G|---2-------2--2-----2------0--------0---0--------------------------------------------|
D|-0----------0------------0------------0----------------------------------------------|
A|-------------------------------------------------------------------------------------|
E|-------------------------------------------------------------------------------------|
home It's my fault to think you'll be true, I'm just a fool

Intro : ( Picking)            (Strum)

e|------------2h3----------------2---------------------------------------------------|
B|---------3------3---------3----3----------------(x2)-------------------------------|
G|-----2------------2----2-------2---------------------------------------------------|
D|--0------------------0---------0---------------------------------------------------|
A|-----------------------------------------------------------------------------------|
E|-----------------------------------------------------------------------------------|

Same Thing for the whole song

(Blake Shelton)
I said that I don't care
I'd walk away whatever
And I tell myself we were bad together (uh huh)
But that's just me trying to move on
With
Out
You

But who am I kidding
I know what I'm missing

Hey
I had my heart set on you
But nothing else hurts like you do
Who know that love was so cruel
(Yeah yeah yeah)
And I
Waited and waited so long
For someone who never come home
It's my fault to think you'll be true (yeah yeah)

I'm just a fool
For holding on to something that
Is never ever gonna come back
I can't accept that it's lost

I should have let it go
Held my tongue
Can't fight the motion
Cause now everything's so wrong
I'm thrown

I'm just a fool
A fool for you
I'm just a fool

I
I had my heart set on you
And nothing else hurts like you do
Who knew that love was so cruel
(Yeah yeah yeah)
And I
Waited and waited so long
For someone who never come home
It's my fault to think you'll be true (yeah yeah)
I'm just a fool
I'm just a fool
I'm just a fool

It's my fault to think you'll be true
(Yeah yeah yeah)
I'm just a fool
Tap to rate this tab
# A B C D E F G H I J K L M N O P Q R S T U V W X Y Z