Song name
# A B C D E F G H I J K L M N O P Q R S T U V W X Y Z

Christina Aguilera - Just A Fool tab

Intro
                     x2
e|--------------------|
b|---------10h11p10---|
g|------12----------12|
D|---12---------------|
A|10------------------|
E|--------------------|

Beginnig
                      x3
e|----------------------|--------------------------------------|
b|---------------------.|--------------------------------------|
g|.------12-12------9-9-|---------11----------------11---------|
D|----12----12----9---9.|------12-12-12----------12-12-12------|
A|.10-------10--7-----7-|---12----------12----12----------12---|
E|----------------------|10----------------10----------------10|

                      x3
e|----------------------|-------------------------------------------------|
b|---------------------.|-------------------------------------------------|
g|.------12-12------9-9-|---------11----------------11--------------------|
D|----12----12----9---9.|------12-12-12----------12-12-12---------7---9---|
A|.10-------10--7-----7-|---12----------12----12----------12------7---9---|
E|----------------------|10----------------10----------------10---5---7---|

                                        x2
e|-----------------------------------------|
b|.---------------------------------------.|
g|-12-12-12-12-9-9-9-9---------------------|
D|.12-12-12-12-9-9-9-9-12-12-12-12-7-7-9-9.|
A|-10-10-10-10-7-7-7-7-12-12-12-12-7-7-9-9-|
E|---------------------10-10-10-10-5-5-7-7-|

e|----------------------|--------------------------------------|
b|---------------------.|--------------------------------------|
g|.------12-12------9-9-|---------11----------------11---------|
D|----12----12----9---9.|------12-12-12----------12-12-12------|
A|.10-------10--7-----7-|---12----------12----12----------12---|
E|----------------------|10----------------10----------------10|

                      x3
e|----------------------|-------------------------------------------------|
b|---------------------.|-------------------------------------------------|
g|.------12-12------9-9-|---------11----------------11--------------------|
D|----12----12----9---9.|------12-12-12----------12-12-12---------7---9---|
A|.10-------10--7-----7-|---12----------12----12----------12------7---9---|
E|----------------------|10----------------10----------------10---5---7---|

                                          x3
e|-----------------------------------------|------------------------------|
b|-----------------------------------------|------------------------------|
g|.12-12-12-12-9-9-9-9--------------------.|.------12-12-------12-12-----9|
D|-12-12-12-12-9-9-9-9-12-12-12-12-7-7-9-9-|----12----12----12----12---9--|
A|.10-10-10-10-7-7-7-7-12-12-12-12-7-7-9-9.|.10-------10-10-------10-7----|
E|---------------------10-10-10-10-5-5-7-7-|------------------------------|

e|----------|
b|----------|
g|9-----9-9.|
D|9---9---9-|
A|7-7-----7.|
E|----------|
                                          x2
e|-----------------------------------------|------------------------------|
b|-----------------------------------------|------------------------------|
g|.12-12-12-12-9-9-9-9--------------------.|.------12-12-------12-12-----9|
D|-12-12-12-12-9-9-9-9-12-12-12-12-7-7-9-9-|----12----12----12----12---9--|
A|.10-10-10-10-7-7-7-7-12-12-12-12-7-7-9-9.|.10-------10-10-------10-7----|
E|---------------------10-10-10-10-5-5-7-7-|------------------------------|

           x2   End
e|----------|--------0|
b|----------|---------|
g|9-----9-9.|------9--|
D|9---9---9-|---12----|
A|7-7-----7.|10-------|
E|----------|---------|


Good Luck!
Tap to rate this tab
# A B C D E F G H I J K L M N O P Q R S T U V W X Y Z