Song name
# A B C D E F G H I J K L M N O P Q R S T U V W X Y Z

Christina Aguilera - Aint No Other Man tab

----------------------------------------------------------------------------------------
			     Aint no Other Man - Christina Aguilera
----------------------------------------------------------------------------------------
Tabbed by: schleichi
Email: lemmyfredericksen@yahoo.de

 if you have some corrections please write a comment and tell me, im not too sure about 
tab. and rate it, goddammit. thx


Tuning: STANDARD


INTRO
e|--------------------------------------------------------------------------------|
B|--------------------------------------------------------------------------------|
G|--------------------------------------------------------------------------------|
D|----------------------------------------------4----4-4----4---------------------|
A|----------2~~~3~~~4~~~4~~~~~~~~~~-------------4----4-4----4---------------------|
E|----4~~~~~------------------------------------2----2-2----2---------------------|
 |                                  "hey"                do your thing honey
e|---------------------------10~~~~~~---------------------------------------------|
B|----------------------10h11-------------------7----7-7----7---------------------|
G|----10~~~10~~10~~11~~~~-----------------------6----6-6----6---------------------|
D|--------------------------------------------------------------------------------|
A|--------------------------------------------------------------------------------|
E|--------------------------------------------------------------------------------|

verse  and chorus

e|--------------------------------------------------------------------------------|
B|--------------------------------------------------------------------------------|
G|----------4---------4---------4---------7--6-----4------------------------------|
D|---4------4--4------4--4------4--4------7--6-----4--4---------------------------|
A|---4------2--4------2--4------2--4------5--4-----2--4---------------------------|
E|---2---------2---------2---------2------------------2---------------------------|

e|--------------------------------------------------------------------------------|
B|---7------7--7------7--7------7--7------7--6-----7--7---------------------------|
G|---6------8--6------8--6------8--6------7--6-----8--6---------------------------|
D|--------------------------------------------------------------------------------|
A|--------------------------------------------------------------------------------|
E|--------------------------------------------------------------------------------|


told my mother my brother....(0:40)

e|--------------------------------------------------------------------------------|
B|--------------------------------------------------------------------------------|
G|--------4---------4---------4---------------------------------------------------|
D|--------4--4------4--4------4--4--4-----4-4---4---------------------------------|
A|--------2--4------2--4------2--4--4-----4-4---4---------------------------------|
E|-----------2---------2---------2--2-----2-2---2---------------------------------|
 |                                                  do your thing honey
e|--------------------------------------------------------------------------------|
B|--------7--7------7--7------7--7--7-----7-6---7---------------------------------|
G|--------8--6------8--6------8--6--6-----7-6---6---------------------------------|
D|--------------------------------------------------------------------------------|
A|--------------------------------------------------------------------------------|
E|--------------------------------------------------------------------------------|

2:18 only bass
e|--------------------------------------------------------------------------------|
B|--------------------------------------------------------------------------------|
G|--------------------------------------------------------------------------------|
D|--------------------------------------------------------------------------------|
A|-----------2----------2-----------2---------------------------------------------|
E|-----2--------2---------2------------2------------------------------------------|

| /  slide up
| \  slide down
| h  hammer-on
| p  pull-off
| ~  vibrato
| +  harmonic
| x  Mute note
===================================================================================
Tap to rate this tab
 
# A B C D E F G H I J K L M N O P Q R S T U V W X Y Z