Song name
# A B C D E F G H I J K L M N O P Q R S T U V W X Y Z

Christina Aguilera - Save Me From Myself tab

SAVE ME FROM MYSELF
Christina Aguilera

----------------------------------------------------------------------

e|--------------------------------------------------------| 
B|--------------5-------------5---------------------------| 
G|--------------6------4------6------4--------------------| 
D|------------6--------6----6--------6--------------------| 
A|----------4--------6----4--------6----------------------| 
E|-----------------4-------------4------------------------|
            
            C#m G#m      C#m G#m
It's not so easy, loving me

----------------------------------------------------------------------

e|------------------------------0-0-------------------x---| 
B|------------------------------2-2-------------------4---| 
G|-----2---2---2----------------2-2-------------------5---| 
D|-----4---4---4----------------4-4-------------------6---| 
A|---4---4---4------------------4-4-------------------6---| 
E|-2----------------------------2-2-------------------4---|

   F#m                          F#m7                 G#
It gets so complicated, all the things you've got to be

----------------------------------------------------------------------

e|--------------------------------------------------------| 
B|---------------5------------------------5---------------| 
G|---------------6--------4---------------6------4--------| 
D|-------------6----------6-------------6--------6--------| 
A|-----------4----------6-------------4--------6----------| 
E|-------------------4-----------------------4------------|
             C#m     G#m              C#m  G#m
Everything's changing, but you're the truth

----------------------------------------------------------------------

e|------------------------------------0-0-------------x---| 
B|------------------------------------2-2-------------4---| 
G|------2---2---2---------------------2-2-------------5---| 
D|------4---4---4---------------------4-4-------------6---| 
A|----4---4---4-----------------------4-4-------------6---| 
E|--2---------------------------------2-2-------------4---|

    F#m                               F#m7            G#
I'm amazed at all your patience, everything I put you through

----------------------------------------------------------------------

e|--------------------------------------------------------| 
B|--------------------------------------------------------| 
G|----------6-6-6---5-5-5-5-------------------------------| 
D|----------7-7-7---6-6-6-6-------------------------------| 
A|--------7-----------------------------------------------| 
E|------5---------(4)-------------------------------------|

	A         G#
	When I'm about to fall, some-

----------------------------------------------------------------------

e|--------------------------------------------------------| 
B|----------5---5-5---------------------------7-----------| 
G|----------6---6-6-------------------------7---7---------| 
D|--------6-------------------------------6-------6-------| 
A|------4-----4-------------------------7-----------7-----| 
E|--------------------------------------------------------|

	C#m                             E9
	how you're always waiting, your open arms to catch me

----------------------------------------------------------------------

e|--------------------------------------------------------| 
B|------------------------------------5-5-5---------7-7-7-| 
G|----------6-6-6----5-5-5-5----------6-6-6---------7-7-7-| 
D|----------7-7-7----6-6-6-6---------6------------6-------| 
A|--------7-------------------------4------------7--------| 
E|------5-------------------------------------------------|

	A            G#             C#m          E9
	You're gonna save me from myself, from myself, yeah

----------------------------------------------------------------------

e|------------------------------------------| 
B|--------------------------------5---------| 
G|----6-6-6----5------------------6-----4---| 
D|----7-7-7----6----------------6-------6---| 
A|--7-------------------------4-------6-----| 
E|5---------------------------------4-------|

  A            G#             C#m G#m (repeat x6)
  You're gonna save me from myself

----------------------------------------------------------------------

e|--------------------------------------------------------| 
B|-------------5---------------5--------------------------| 
G|-------------6------4--------6-----4--------------------| 
D|-----------6--------6------6-------6--------------------| 
A|---------4--------6------4-------6----------------------| 
E|---------------4---------------4------------------------|

           C#m   G#m       C#m   G#m
My love is tainted by your touch

----------------------------------------------------------------------


e|--------------------------------------------0-0------------x-| 
B|--------------------------------------------2-2------------4-| 
G|------------2---2---2-----------------------2-2------------5-| 
D|------------4---4---4-----------------------4-4------------6-| 
A|----------4---4---4-------------------------4-4------------6-| 
E|--------2-----------------------------------2-2------------4-|

          F#m                                 F#m7           G#
Well some guys have shown me aces, but you've got that royal flush

----------------------------------------------------------------------

e|--------------------------------------------------------| 
B|--------------5------------5----------------------------| 
G|--------------6-----4------6----4-----------------------| 
D|------------6-------6----6------6-----------------------| 
A|----------4-------6----4------6-------------------------| 
E|----------------4-----------4---------------------------|

            C#m  G#m     C#m G#m
I know it's crazy, every day

----------------------------------------------------------------------

e|----------------------------------0-0--------x----------| 
B|----------------------------------2-2--------4----------| 
G|-------2---2---2------------------2-2--------5----------| 
D|-------4---4---4------------------4-4--------6----------| 
A|-----4---4---4--------------------4-4--------6----------| 
E|---2------------------------------2-2--------4----------|

     F#m                            F#m7       G#
Well tomorrow may be shaky, but you never turn away

----------------------------------------------------------------------

e|--------------------------------------------------------| 
B|--------------------------------------------------------| 
G|----------6-6-6---5-5-5-5-------------------------------| 
D|----------7-7-7---6-6-6-6-------------------------------| 
A|--------7-----------------------------------------------| 
E|------5---------(4)-------------------------------------|

	A            G#
	Don't ask me why I'm crying

----------------------------------------------------------------------

e|---------------------------------------------------------------| 
B|---------5----5-6----------------------------7-----7-----7-----| 
G|---------6----5-6--------------------------7---7-----7-----7---| 
D|-------6---------------------------------6-------6-----6-----6-| 
A|-----4------4--------------------------7-----------------------| 
E|---------------------------------------------------------------|

       C#m                               E9
'Cause when I start to crumble, you know how to keep me smiling

----------------------------------------------------------------------

e|------------------------------------------------------------------| 
B|--------------------------------5-5-5------------7--------7-------| 
G|----------6-6-6--5-5-5-5--------6-6-6----------7---7-----7--7-----| 
D|----------7-7-7--6-6-6-6-------6-------------6-------6--------6---| 
A|--------7---------------------4------------7-----------7--------7-| 
E|------5-----------------------------------------------------------|
	A          G#           C#m          E9
	You always save me from myself, from myself, myself

----------------------------------------------------------------------

e|--------------------------------------------------------------| 
B|--------------------------------------------------------------| 
G|----------6-6-6----5----------------6-6-6-6-6-6-6-6-6-6-6-6-6-| 
D|----------7-7-7----6--------------6-6-6-6-6-6-6-6-6-6-6-6-6-6-|
A|--------7-----------------------4-----------------------------| 
E|------5-------------------------------------------------------|

	A            G#           C#m (repeat x12)
	You're gonna save me from myself, I know it's hard, it's hard
(this part was sort of tricky to figure out, so it could be different)

----------------------------------------------------------------------

e|--------------------------------------------------------| 
B|-----------------5-5-------5------5-5-------------------| 
G|----------6------6-6-----6---6----6-6-------------------| 
D|--------6-6----6-------6-------6------------------------| 
A|------4------4-------4----------4-----------------------| 
E|--------------------------------------------------------|

	C#m
	But you've broken all my walls, you've been my strength, so strong
(this part was sort of tricky to figure out, so it could be different)

----------------------------------------------------------------------

e|--------------------------------------------------------| 
B|--------------------------------------------------------| 
G|----------6-6-6---5-5-5-5-------------------------------| 
D|----------7-7-7---6-6-6-6-------------------------------| 
A|--------7-----------------------------------------------| 
E|------5---------(4)-------------------------------------|

	A            G#
	Don't ask me why I love you

----------------------------------------------------------------------

e|--------------------------------------------------------| 
B|-------5-5----------------------7-7-7-7-7---------------| 
G|-------6-6----------------------7-7-7-7-7---------------| 
D|-----6-----6--------------------6-6-6-6-6---------------| 
A|---4---------4----------------7-------------------------| 
E|--------------------------------------------------------|

     C#m                        E9
It's obvious your tenderness is what I need to make me

----------------------------------------------------------------------

e|--------------------------------------------------------| 
B|------------------------------5-----5-------7-----------| 
G|----------6----5--------------6-----6-----7---7---7-----| 
D|----------7----6------------6-----6-----6---------6-6---| 
A|--------7-----------------4-----4-----7---------7-----7-| 
E|------5-------------------------------------------------|

	A        G#         C#m         E9
	A better woman to myself, to myself, myself

----------------------------------------------------------------------

e|--------x-x-x------x------------------------------------| 
B|--------5-5-5------4--------------------5---------------| 
G|--------6-6-6------5------------------6-----------------| 
D|--------7-7-7------6----------------6-------------------| 
A|--------7-7-7------6--------------4---------------------| 
E|------5-5-5-5------4------------------------------------|

	A            G#             C#m (strum softly)
	You're gonna save me from myself
Tap to rate this tab
# A B C D E F G H I J K L M N O P Q R S T U V W X Y Z