Song name
# A B C D E F G H I J K L M N O P Q R S T U V W X Y Z

Christina Grimmie - Find Me Acoustic chords

Highlighted       Show chord diagrams
Standard tuning No Capo

Intro Chords are Fm C# G# D#

Fm   C#    G#                         D#
I... know... something's bound to change

    Fm   C#     G#                   D#
And I... know... I have been to blame

Fm             C#                   G#                         D#    
Washing away this era of madness won't come and spread no shame

Fm                     C#                      G#                   D#
'Cause I've been waiting, watching, and praying for you to go insane


I've been...
Piano RIff:
E---------------------------------------------------------------------|
B----------13---------------------------------------------------------|
G--13--15------13--12--13--10---10h12h13--12--10----------------------|
D-------------------------------------------------13---15------13-----|
A---------------------------------------------------------15------13--|
E---------------------------------------------------------------------|


Chorus:

Fm
Calling out,

C#                      G#
Come on out and find me

                          D#
I've been waiting my turn

Fm                C#                        G#
Pressure's on and now your heart is beating

                   D#
To the sound of my name and I say,

C#       G#        Fm        D#
Find me

C#       G#        Fm        D#
Find me



Fm               C#                      G#                      D#
Feeling the fire, burning the thought of, calling back your name

Fm                      C#     G#                           D#
Maybe it's all different,      because I cease to play your game

Fm x3    
Forget the footsteps

C# x3
Forward and take one, 

G# x3                          D# x3
back Pray that you're secure!


Hey!

Fm x3
So now you're prying!

C# x3
Open the binding,

G# x3                        D#
I'm what you're looking for!



Chorus:

Fm
Calling out,

C#                      G#
Come on out and find me

                                D#
Cause, I've been waiting my turn

Fm                C#                        G#
Pressure's on and now your heart is beating

                   D#               Fm
To the sound of my name and I say,


Bridge:

Fm   D# C#  Fm
This civil smile

        Fm            Fm
It wont get you, anywhere

D# Fm G# D# C#  Fm G#
Anymore.............

D# C#  Fm G# D# C#
 ANYMORE!...

Fm G# D#
Anymore...

Fm x3
More...

C# x3
More... 

G# x3 D#
More...Yeah Yeah.!



Chorus:

Fm                C#                        G#
Pressure's on and now your heart is beating

                   D#               Fm
To the sound of my name and I say,


Fm C# G# D#
Find me...

Fm C# G# D#
Find me...

Piano RIff:
E---------------------------------------------------------------------|
B----------13---------------------------------------------------------|
G--13--15------13--12--13--10---10h12h13--12--10----------------------|
D-------------------------------------------------13---15------13-----|
A---------------------------------------------------------15------13--|
E---------------------------------------------------------------------|

End on Fm
Tap to rate this tab
 
# A B C D E F G H I J K L M N O P Q R S T U V W X Y Z