Guitaretab - guitar tabs
Song name
# A B C D E F G H I J K L M N O P Q R S T U V W X Y Z

Christina Perri - Jar Of Hearts tab

Artist: Christina Perri
Song: Jar Of Hearts
(capo 1st fret)


 Verse
  W        W        W        W
|-2--------2--------0--------0----|
|-3--------3--------2--------0----|
|-4--------2--------2--------0----|
|-4--------0--------2--------2----|
|-2-----------------0--------2----|
|----------------------------0----|


  W        W        W        H.      S S S S
|-2--------2--------0--------3-------3-3---0-|
|-3--------3--------2--------3-------3-3---0-|
|-4--------2--------2--------0-------0-0---0-|
|-4--------0--------2--------0-------0-0---2-|
|-2-----------------0--------2-------2-2---2-|
|----------------------------3-------3-3---0-|


 Pre Chorus
  Q  E S E S E S S S S Q  E S E S E S S S S
|-0--0-0-0-0-0-0-0-0-2-2--2-0-0-0-0-0-0-0-0----|
|-0--0-0-0-0-0-0-0-0-3-3--3-2-2-2-2-2-2-2-0----|
|-0--0-0-0-0-0-0-0-0-2-2--2-2-2-2-2-2-2-2-0----|
|-2--2-2-2-2-2-2-2-2-0-0--0-2-2-2-2-2-2-2-2----|
|-2--2-2-2-2-2-2-2-2--------0-0-0-0-0-0-0-2----|
|-0--0-0-0-0-0-0-0-0----------------------0----|


  Q  E S E S E S S S S Q  E S E S E S S S S
|-0--0-2-2-2-2-2-2-2-0-0--0-0-0-0-0-0-0-0-2----|
|-0--0-3-3-3-3-3-3-3-3-3--3-2-2-2-2-2-2-2-3----|
|-0--0-2-2-2-2-2-2-2-2-2--2-2-2-2-2-2-2-2-2----|
|-2--2-0-0-0-0-0-0-0-0-0--0-2-2-2-2-2-2-2-0----|
|-2--2----------------------0-0-0-0-0-0-0------|
|-0--0-----------------------------------------|


 Chorus
  Q  E S E S E S S S S Q  E S E S E S S S S
|-2--2-2-2-2-2-2-2-2-0-0--0-0-0-0-0-0-0-0-2----|
|-3--3-3-3-3-3-3-3-3-2-2--2-2-2-2-2-2-2-2-3----|
|-2--2-2-2-2-2-2-2-2-2-2--2-2-2-2-2-2-2-2-4----|
|-0--0-0-0-0-0-0-0-0-2-2--2-2-2-2-2-2-2-2-4----|
|--------------------0-0--0-0-0-0-0-0-0-0-2----|
|----------------------------------------------|


  Q  E S E S E S S S S Q  E S E S E S S S S
|-2--2-2-2-2-2-2-2-2-3-3--3-3-3-3-3-3-3-3-2----|
|-3--3-3-3-3-3-3-3-3-3-3--3-3-3-3-3-3-3-3-3----|
|-4--4-4-4-4-4-4-4-4-4-4--4-3-3-3-3-3-3-3-2----|
|-4--4-4-4-4-4-4-4-4-5-5--5-5-5-5-5-5-5-5-0----|
|-2--2-2-2-2-2-2-2-2-5-5--5-5-5-5-5-5-5-5------|
|--------------------3-3--3-3-3-3-3-3-3-3------|


  Q  E S E S E S S S S Q  E S E S E S S S S
|-2--2-2-2-2-2-2-2-2-0-0--0-0-0-0-0-0-0-0-2----|
|-3--3-3-3-3-3-3-3-3-2-2--2-2-2-2-2-2-2-2-3----|
|-2--2-2-2-2-2-2-2-2-2-2--2-2-2-2-2-2-2-2-4----|
|-0--0-0-0-0-0-0-0-0-2-2--2-2-2-2-2-2-2-2-4----|
|--------------------0-0--0-0-0-0-0-0-0-0-2----|
|----------------------------------------------|


  Q  E S E S E S S S S Q  E S E S E S S S S Q  E S E S E S S S S
|-2--2-2-2-2-2-2-2-2-3-3--3-3-3-3-3-3-3-3-2-2--2-2-2-2-2-2-2-2-2--|
|-3--3-3-3-3-3-3-3-3-3-3--3-3-3-3-3-3-3-3-3-3--3-3-3-3-3-3-3-3-3--|
|-4--4-4-4-4-4-4-4-4-4-4--4-3-3-3-3-3-3-3-2-2--2-2-2-2-2-2-2-2-4--|
|-4--4-4-4-4-4-4-4-4-5-5--5-5-5-5-5-5-5-5-0-0--0-0-0-0-0-0-0-0-4--|
|-2--2-2-2-2-2-2-2-2-5-5--5-5-5-5-5-5-5-5----------------------2--|
|--------------------3-3--3-3-3-3-3-3-3-3-------------------------|


 Verse
  Q  E S E S E S S S S Q  E S E S E S S S S
|-2--2-2-2-2-2-2-2-2-2-2--2-2-2-2-2-2-2-2-0----|
|-3--3-3-3-3-3-3-3-3-3-3--3-3-3-3-3-3-3-3-2----|
|-4--4-4-4-4-4-4-4-4-2-2--2-2-2-2-2-2-2-2-2----|
|-4--4-4-4-4-4-4-4-4-0-0--0-0-0-0-0-0-0-0-2----|
|-2--2-2-2-2-2-2-2-2----------------------0----|
|----------------------------------------------|


  Q  E S E S E S S S S Q  E S E S E S S S S
|-0--0-0-0-0-0-0-0-0-0-0--0-0-0-0-0-0-0-0-2----|
|-2--2-2-2-2-2-2-2-2-0-0--0-0-0-0-0-0-0-0-3----|
|-2--2-2-2-2-2-2-2-2-0-0--0-0-0-0-0-0-0-0-4----|
|-2--2-2-2-2-2-2-2-2-2-2--2-2-2-2-2-2-2-2-4----|
|-0--0-0-0-0-0-0-0-0-2-2--2-2-2-2-2-2-2-2-2----|
|--------------------0-0--0-0-0-0-0-0-0-0------|


  Q  E S E S E S S S S Q  E S E S E S S S S
|-2--2-2-2-2-2-2-2-2-2-2--2-2-2-2-2-2-2-2-0----|
|-3--3-3-3-3-3-3-3-3-3-3--3-3-3-3-3-3-3-3-2----|
|-4--4-4-4-4-4-4-4-4-2-2--2-2-2-2-2-2-2-2-2----|
|-4--4-4-4-4-4-4-4-4-0-0--0-0-0-0-0-0-0-0-2----|
|-2--2-2-2-2-2-2-2-2----------------------0----|
|----------------------------------------------|


  Q  E S E S E S S S S Q  E S E S E S S S S
|-0--0-0-0-0-0-0-0-0-3-3--3-3-3-3-3-3-3-3-0----|
|-2--2-2-2-2-2-2-2-2-3-3--3-3-3-3-3-3-3-3-0----|
|-2--2-2-2-2-2-2-2-2-0-0--0-0-0-0-0-0-0-0-0----|
|-2--2-2-2-2-2-2-2-2-0-0--0-0-0-0-0-0-0-0-2----|
|-0--0-0-0-0-0-0-0-0-2-2--2-2-2-2-2-2-2-2-2----|
|--------------------3-3--3-3-3-3-3-3-3-3-0----|


 Pre Chorus
  Q  E S E S E S S S S Q  E S E S E S S S S
|-0--0-0-0-0-0-0-0-0-2-2--2-0-0-0-0-0-0-0-0----|
|-0--0-0-0-0-0-0-0-0-3-3--3-2-2-2-2-2-2-2-0----|
|-0--0-0-0-0-0-0-0-0-2-2--2-2-2-2-2-2-2-2-0----|
|-2--2-2-2-2-2-2-2-2-0-0--0-2-2-2-2-2-2-2-2----|
|-2--2-2-2-2-2-2-2-2--------0-0-0-0-0-0-0-2----|
|-0--0-0-0-0-0-0-0-0----------------------0----|


  Q  E S E S E S S S S Q  E S E S E S S S S
|-0--0-2-2-2-2-2-2-2-0-0--0-0-0-0-0-0-0-0-2----|
|-0--0-3-3-3-3-3-3-3-3-3--3-2-2-2-2-2-2-2-3----|
|-0--0-2-2-2-2-2-2-2-2-2--2-2-2-2-2-2-2-2-2----|
|-2--2-0-0-0-0-0-0-0-0-0--0-2-2-2-2-2-2-2-0----|
|-2--2----------------------0-0-0-0-0-0-0------|
|-0--0-----------------------------------------|


 Chorus
  Q  E S E S E S S S S Q  E S E S E S S S S
|-2--2-2-2-2-2-2-2-2-0-0--0-0-0-0-0-0-0-0-2----|
|-3--3-3-3-3-3-3-3-3-2-2--2-2-2-2-2-2-2-2-3----|
|-2--2-2-2-2-2-2-2-2-2-2--2-2-2-2-2-2-2-2-4----|
|-0--0-0-0-0-0-0-0-0-2-2--2-2-2-2-2-2-2-2-4----|
|--------------------0-0--0-0-0-0-0-0-0-0-2----|
|----------------------------------------------|


  Q  E S E S E S S S S Q  E S E S E S S S S
|-2--2-2-2-2-2-2-2-2-3-3--3-3-3-3-3-3-3-3-2----|
|-3--3-3-3-3-3-3-3-3-3-3--3-3-3-3-3-3-3-3-3----|
|-4--4-4-4-4-4-4-4-4-4-4--4-3-3-3-3-3-3-3-2----|
|-4--4-4-4-4-4-4-4-4-5-5--5-5-5-5-5-5-5-5-0----|
|-2--2-2-2-2-2-2-2-2-5-5--5-5-5-5-5-5-5-5------|
|--------------------3-3--3-3-3-3-3-3-3-3------|

[ Tab from: http://www.guitaretab.com/c/christina-perri/283649.html ]
  Q  E S E S E S S S S Q  E S E S E S S S S
|-2--2-2-2-2-2-2-2-2-0-0--0-0-0-0-0-0-0-0-2----|
|-3--3-3-3-3-3-3-3-3-2-2--2-2-2-2-2-2-2-2-3----|
|-2--2-2-2-2-2-2-2-2-2-2--2-2-2-2-2-2-2-2-4----|
|-0--0-0-0-0-0-0-0-0-2-2--2-2-2-2-2-2-2-2-4----|
|--------------------0-0--0-0-0-0-0-0-0-0-2----|
|----------------------------------------------|


  Q  E S E S E S S S S Q  E S E S E S S S S Q  E S E S E S S S S
|-2--2-2-2-2-2-2-2-2-3-3--3-3-3-3-3-3-3-3-2-2--2-2-2-2-2-2-2-2-2--|
|-3--3-3-3-3-3-3-3-3-3-3--3-3-3-3-3-3-3-3-3-3--3-3-3-3-3-3-3-3-3--|
|-4--4-4-4-4-4-4-4-4-4-4--4-3-3-3-3-3-3-3-2-2--2-2-2-2-2-2-2-2-2--|
|-4--4-4-4-4-4-4-4-4-5-5--5-5-5-5-5-5-5-5-0-0--0-0-0-0-0-0-0-0-0--|
|-2--2-2-2-2-2-2-2-2-5-5--5-5-5-5-5-5-5-5-------------------------|
|--------------------3-3--3-3-3-3-3-3-3-3-------------------------|


 Bridge
  E E E E E E E E E E E E E E E E E E E E E E E E E E E E E E E E
|-2---2---2---2---2---2---0---0---2---2---2---2---2---2---0---0-----|
|-3---3---2---2---3---3---0---0---3---3---2---2---3---3---0---0-----|
|-4---4---3---3---2---2---1---1---4---4---3---3---2---2---1---1-----|
|-4---4---4---4---0---0---2---2---4---4---4---4---0---0---2---2-----|
|-2---2---4---4-----------2---2---2---2---4---4-----------2---2-----|
|---------2---2-----------0---0-----------2---2-----------0---0-----|


  E E E E E E E E E E E E E E E E E E E E E E E E E E E E E E E E
|-2---2---2---2---2---2---0---0---2---2---2---2---2---2---0---0-----|
|-3---3---2---2---3---3---0---0---3---3---2---2---3---3---0---0-----|
|-4---4---3---3---2---2---1---1---4---4---3---3---2---2---1---1-----|
|-4---4---4---4---0---0---2---2---4---4---4---4---0---0---2---2-----|
|-2---2---4---4-----------2---2---2---2---4---4-----------2---2-----|
|---------2---2-----------0---0-----------2---2-----------0---0-----|


  Q  E S E S E S S S S E E E E E E E E
|-3--3-3-3-3-3-3-3-3-3-2-2-2-2-2-2-2-2----|
|-3--3-3-3-3-3-3-3-3-3-2-2-2-2-2-2-2-2----|
|-0--0-0-0-0-0-0-0-0-0-3-3-3-3-3-3-3-3----|
|-0--0-0-0-0-0-0-0-0-0-4-4-4-4-4-4-4-4----|
|-2--2-2-2-2-2-2-2-2-2-4-4-4-4-4-4-4-4----|
|-3--3-3-3-3-3-3-3-3-3-2-2-2-2-2-2-2-2----|


 Chorus
  Q  E S E S E S S S S Q  E S E S E S S S S
|-2--2-2-2-2-2-2-2-2-0-0--0-0-0-0-0-0-0-0-2----|
|-3--3-3-3-3-3-3-3-3-2-2--2-2-2-2-2-2-2-2-3----|
|-2--2-2-2-2-2-2-2-2-2-2--2-2-2-2-2-2-2-2-4----|
|-0--0-0-0-0-0-0-0-0-2-2--2-2-2-2-2-2-2-2-4----|
|--------------------0-0--0-0-0-0-0-0-0-0-2----|
|----------------------------------------------|


  Q  E S E S E S S S S Q  E S E S E S S S S
|-2--2-2-2-2-2-2-2-2-3-3--3-3-3-3-3-3-3-3-2----|
|-3--3-3-3-3-3-3-3-3-3-3--3-3-3-3-3-3-3-3-3----|
|-4--4-4-4-4-4-4-4-4-4-4--4-3-3-3-3-3-3-3-2----|
|-4--4-4-4-4-4-4-4-4-5-5--5-5-5-5-5-5-5-5-0----|
|-2--2-2-2-2-2-2-2-2-5-5--5-5-5-5-5-5-5-5------|
|--------------------3-3--3-3-3-3-3-3-3-3------|


  Q  E S E S E S S S S Q  E S E S E S S S S
|-2--2-2-2-2-2-2-2-2-0-0--0-0-0-0-0-0-0-0-2----|
|-3--3-3-3-3-3-3-3-3-2-2--2-2-2-2-2-2-2-2-3----|
|-2--2-2-2-2-2-2-2-2-2-2--2-2-2-2-2-2-2-2-4----|
|-0--0-0-0-0-0-0-0-0-2-2--2-2-2-2-2-2-2-2-4----|
|--------------------0-0--0-0-0-0-0-0-0-0-2----|
|----------------------------------------------|


  Q  E S E S E S S S S Q  E S E S E S S S S
|-2--2-2-2-2-2-2-2-2-3-3--3-3-3-3-3-3-3-3-2----|
|-3--3-3-3-3-3-3-3-3-3-3--3-3-3-3-3-3-3-3-3----|
|-4--4-4-4-4-4-4-4-4-4-4--4-3-3-3-3-3-3-3-2----|
|-4--4-4-4-4-4-4-4-4-5-5--5-5-5-5-5-5-5-5-0----|
|-2--2-2-2-2-2-2-2-2-5-5--5-5-5-5-5-5-5-5------|
|--------------------3-3--3-3-3-3-3-3-3-3------|


 Chorus
  Q  E S E S E S S S S Q  E S E S E S S S S
|-2--2-2-2-2-2-2-2-2-0-0--0-0-0-0-0-0-0-0-2----|
|-3--3-3-3-3-3-3-3-3-2-2--2-2-2-2-2-2-2-2-3----|
|-2--2-2-2-2-2-2-2-2-2-2--2-2-2-2-2-2-2-2-4----|
|-0--0-0-0-0-0-0-0-0-2-2--2-2-2-2-2-2-2-2-4----|
|--------------------0-0--0-0-0-0-0-0-0-0-2----|
|----------------------------------------------|


  Q  E S E S E S S S S Q  E S E S E S S S S
|-2--2-2-2-2-2-2-2-2-3-3--3-3-3-3-3-3-3-3-2----|
|-3--3-3-3-3-3-3-3-3-3-3--3-3-3-3-3-3-3-3-3----|
|-4--4-4-4-4-4-4-4-4-4-4--4-3-3-3-3-3-3-3-2----|
|-4--4-4-4-4-4-4-4-4-5-5--5-5-5-5-5-5-5-5-0----|
|-2--2-2-2-2-2-2-2-2-5-5--5-5-5-5-5-5-5-5------|
|--------------------3-3--3-3-3-3-3-3-3-3------|


  Q  E S E S E S S S S Q  E S E S E S S S S
|-2--2-2-2-2-2-2-2-2-0-0--0-0-0-0-0-0-0-0-2----|
|-3--3-3-3-3-3-3-3-3-2-2--2-2-2-2-2-2-2-2-3----|
|-2--2-2-2-2-2-2-2-2-2-2--2-2-2-2-2-2-2-2-4----|
|-0--0-0-0-0-0-0-0-0-2-2--2-2-2-2-2-2-2-2-4----|
|--------------------0-0--0-0-0-0-0-0-0-0-2----|
|----------------------------------------------|


  Q  E S E S E S S S S Q  E S E S E S S S S Q  E S E S E S S S S
|-2--2-2-2-2-2-2-2-2-3-3--3-3-3-3-3-3-3-3-2-2--2-2-2-2-2-2-2-2-3--|
|-3--3-3-3-3-3-3-3-3-3-3--3-3-3-3-3-3-3-3-3-3--3-3-3-3-3-3-3-3-3--|
|-4--4-4-4-4-4-4-4-4-4-4--4-3-3-3-3-3-3-3-2-2--2-2-2-2-2-2-2-2-3--|
|-4--4-4-4-4-4-4-4-4-5-5--5-5-5-5-5-5-5-5-0-0--0-0-0-0-0-0-0-0-5--|
|-2--2-2-2-2-2-2-2-2-5-5--5-5-5-5-5-5-5-5----------------------5--|
|--------------------3-3--3-3-3-3-3-3-3-3----------------------3--|


 Ending
  Q  E S E S E S S S S Q  E S E S E S S S S
|-3--3-3-3-3-3-3-3-3-2-2--2-2-2-2-2-2-2-2-3----|
|-3--3-3-3-3-3-3-3-3-3-3--3-3-3-3-3-3-3-3-3----|
|-3--3-3-3-3-3-3-3-3-2-2--2-2-2-2-2-2-2-2-3----|
|-5--5-5-5-5-5-5-5-5-0-0--0-0-0-0-0-0-0-0-5----|
|-5--5-5-5-5-5-5-5-5----------------------5----|
|-3--3-3-3-3-3-3-3-3----------------------3----|


  Q  E S E S E S S S S Q  E S E S E S S S S
|-3--3-3-3-3-3-3-3-3-2-2--2-2-2-2-2-2-2-2-3----|
|-3--3-3-3-3-3-3-3-3-3-3--3-3-3-3-3-3-3-3-3----|
|-3--3-3-3-3-3-3-3-3-2-2--2-2-2-2-2-2-2-2-3----|
|-5--5-5-5-5-5-5-5-5-0-0--0-0-0-0-0-0-0-0-5----|
|-5--5-5-5-5-5-5-5-5----------------------5----|
|-3--3-3-3-3-3-3-3-3----------------------3----|


  Q  E S E S Q.    W
|-3--3-3-3-3-3-----2----|
|-3--3-3-3-3-3-----3----|
|-3--3-3-3-3-3-----2----|
|-5--5-5-5-5-5-----0----|
|-5--5-5-5-5-5----------|
|-3--3-3-3-3-3----------|


www.guitarstars.biz
Related for Jar Of Hearts tab
Jar Of Hearts chords by Christina Perri