Song name
# A B C D E F G H I J K L M N O P Q R S T U V W X Y Z

Christina Perri - Distance tab

------------------------------------------------------------------------------
			     Distance by Christina Perri
-------------------------------------------------------------------------------
Tabbed by:nomorebeans
Email:dinosaur_108@yahoo.com
This is my first tab ever. Enjoi ^___^

Tuning: standard
Capo 2

e|-------3-----3-----3-----3------------------3-----3-----3-----3------------|
B|---------------------------------------------------------------------------|
G|-------0-----0-----0-----0------------------0-----0-----0-----0------------|
D|-----2-----2-----2-----2--------2---------2-----2-----2-----2-------2------|
A|---3-----3-----3-----3------0-----------3-----3-----3-----3------0---------|
E|---------------------------------------------------------------------------
|

This is played during the intro, during most of the verses, and the outro.
It's a bit tricky, but practice makes perfect!
Hope this was helpful, somewhat!

Tap to rate this tab
# A B C D E F G H I J K L M N O P Q R S T U V W X Y Z