Song name
# A B C D E F G H I J K L M N O P Q R S T U V W X Y Z

Christina Perri - A Thousand Years tab

Intro : A Thousand Years \m/
Tabbed by           : Migzz
Special Thanks to: Chastin ( For Singing this song everyday even I only  tabbed the 
intro part xD )
                            : Kier       (For the Capo :D )
                            : S** (as my inspiration) xD
    Standard Tunning
(Capo 3rd Fret )



|------4------------4------------4---------2----------4------------4------------4----|
|------5------------5------------5--------------------5------------5------------5----|
|------------------------------------------------------------------------------------|
|------------------------------------------------------------------------------------|
|------7-----------------------------------6-----------------------------------------|
|------------------------------------------------------0-----------------------------|



|------2--------5------------5------------5-------4-------- 4---------5----------3---2------|
|------5--------2------------2------------2-----------------5-------- 3----------3-------3--|
|---------------2------------------------------------------ 4-------- 2---------------------|
|---------------------------------------------------------------------0---------------------|
|-------------------------------------------------------------------------------------------|
|-------------------------------------------------------------------------------------------|


I Love You S** :)
Tap to rate this tab
# A B C D E F G H I J K L M N O P Q R S T U V W X Y Z