Song name
# A B C D E F G H I J K L M N O P Q R S T U V W X Y Z

Christina Perri - A Thousand Years tab

capo on 3rd fret

i know the capo doesn't affect the tabs, it is there so you could play the whole 
song with the other tabs

INTRO(piano)

|-7------7------7------5------7------7------7------5-----|
|--------------------------------------------------------|
|-7------7------7------7------7------7------7------7-----|
|-5--------------------4---------------------------------|
|-----------------------------7--------------------5-----|
|--------------------------------------------------------|


|-8------8------8-------------7------7------5------------|
|-5------5------5------8------------------------8--7-----|
|-----------------------------7------7------7---------7--|
|--------------------------------------------------------|
|-----------------------------5--------------------------|
|-8--------------------8---------------------------------|
Tap to rate this tab
# A B C D E F G H I J K L M N O P Q R S T U V W X Y Z