Song name
# A B C D E F G H I J K L M N O P Q R S T U V W X Y Z

Christina Perri - Distance tab

Listen to the song to find out the rhythm and when to pluck. First time tabbing, 
please point out if there are mistakes! gloria_mee@hotmail.com

A (for intro and verse and outro)

e-------0-----0-----0----0---------------------|
B-----2-----2-----2----2-----2-----------------|
G---2-----2-----2----2-------------------------|
D--------------------------4-------------------|
A----------------------------------------------|
E----------------------------------------------|

C#m  D (for verse)

e---------------------------|
B-----2-----2---------------|
G---1-----1----1-2----------|
D-2-----2------0------------|
A---------------------------|
E---------------------------|

Capo 5

Intro: A

[Verse 1] (refer to tabs above)
A       
Sun is filling up the room
A
And I can hear you dreaming
A                    C#m
Do you feel the way I do?
D
Right now?

A
I wish we would just give up
A
'Cause the best part is falling
A                   C#m
Call it anything but love
    D
And I will

[Chorus]
D
Make sure to keep my distance
E
Say I love you when you're not listening
F#m                         E
And how long can we keep this up, up, up?

[Verse 2] (refer to tabs above)
Please don't stand so close to me
I'm having trouble breathing
I'm afraid of what you'll see
Right now

I'll give you everything I am
All my broken heartbeats
Until I know you'll understand
And I will

[Chorus]
D
Make sure to keep my distance
E
Say I love you when you're not listening
F#m                         E
And how long can we keep this up, up, up?


[Bridge]
F#m
And I keep waiting
D
For you to take me
A
You keep waiting
C#m
To save what we have


So I'll

[Chorus]
D
Make sure to keep my distance
E
Say I love you when you're not listening
F#m                         E
And how long can we keep this up, up, up?


D
Make sure to keep my distance
F#m
Say I love you when you're not listening
D                             E
And how long till we call this love, love love?


Outro A
Tap to rate this tab
# A B C D E F G H I J K L M N O P Q R S T U V W X Y Z