Song name
# A B C D E F G H I J K L M N O P Q R S T U V W X Y Z

Christina Perri - Arms tab

---------------------------------------------------------------------
                                Arms - Christina Perri
---------------------------------------------------------------------
Tabbed by: Sikorad15
PLEASE RATE!!!
I was looking for a way to play this song and
realized there was no tab that sounded correct, so i figured it out myself.
This may not be 100% right but its pretty dang close.
 Most Of the Chord tabs were right but i couldn't find
 any fingerpick tabs that were right. Heres Mine.

Tuning: Standard

Intro
e|--------------------------------|---------------------------------------------|
B|--------------------------------|---------------------------------------------|
G|------1-----1-----1------1------|----- 1-----1------1------1------------------|
D|------2-----2-----2------2----- |------2-----2------2------2------------------|
A|--------------------------------|---------------------------------------------|
E|----0-----0-----0------0--------|----0-----0------0------0--------------------|

e|----------------------------|-------------------------------------------------|
B|----------------------------|-------------------------------------------------|
G|-----4-----4-----4----4----|------4-----4-----4-----4-------------------------|
D|-----6-----6-----6----6----|------6-----6-----6-----6-------------------------|
A|----------------------------|-------------------------------------------------|
E|---4-----4-----4----4-------|--4-----4------4-----4---------------------------|

Verses (basicly same as intro just longer on the E pattern)
e|-----------------------------------------------|
B|-----------------------------------------------|
G|------1------1-----1-------1-------------------|
D|------2------2-----2-------2-------------------|
A|-----------------------------------------------|
E|---0------0-----0-------0----------------------|  X4
I Never Thought........


e|-----------------------------|---------------------------------------|
B|-----------------------------|---------------------------------------|
G|-----4-----4-----4----4-----|--------4----4-----4----4---------------|
D|-----6-----6-----6----6-----|--------6----6-----6----6---------------|
A|----------------------------|----------------------------------------|
E|---4-----4-----4-----4------|------4----4-----4----4-----------------| X2
Heart....

e|-----------------------------------------------|
B|-----------------------------------------------|
G|------1------1-----1-------1-------------------|
D|------2------2-----2-------2-------------------|
A|-----------------------------------------------|
E|---0------0-----0-------0----------------------|  X4
But You Came Around.....

e|-----------------------------|---------------------------------------|
B|-----------------------------|---------------------------------------|
G|-----4-----4-----4----4-----|--------4----4-----4----4---------------|
D|-----6-----6-----6----6-----|--------6----6-----6----6---------------|
A|----------------------------|----------------------------------------|
E|---4-----4-----4-----4------|------4----4-----4----4-----------------| X2
Start.......

Chorus
e|--------------------------|--------------------------------------------|
B|--------------------------|--------------------------------------------|
G|-----6-----6-----6----6--|-------8----8----8---8-----------------------|
D|-----7-----7-----7----7 --|------9----9----9---9-----------------------|
A|--------------------------|--------------------------------------------|
E|--5------5-----5----5-----|---7-----7----7----7------------------------|
     You Put Your                          Arms around
e|--------------------------|-------------------------------------------------|
B|--------------------------|-------------------------------------------------|
G|------6----6----6----6---|------8----8----8-----8---------------------------|
D|------7----7----7----7---|------9----9----9-----9---------------------------|
A|--------------------------|-------------------------------------------------|
E|----5----5----5----5------|---7-----7----7----7--------------------- -------|
Me and I      believe    that its
e|---------------------------|--------------------------------------------------|
B|---------------------------|--------------------------------------------------|
G|-----1-----1-----1----1---|-----1----1------8----8----------------------------|
D|-----2-----2-----2----2---|-----2----2------9----9----------------------------|
A|---------------------------|--------------------------------------------------|
E|--0-----0-----0-----0------|--0----0------7----7------------------------------|
Easier for you to let me
e|-----------------------------|------------------------------------------------|
B|-----------------------------|------------------------------------------------|
G|------6----6-----6-----6----|-----6------6------4-----4-----------------------|
D|------7----7-----7-----7----|-----7------7------6-----6-----------------------|
A|-----------------------------|------------------------------------------------|
E|---5-----5-----5-----5------|---5-----5------4------4-------------------------|
...Go
e|--------------------------|---------------------------------------------------|
B|--------------------------|---------------------------------------------------|
G|-----6----6----6---6-----|------8---------------------------------------------|
D|-----7----7----7---7-----|------9---------------------------------------------|
A|--------------------------|---------------------------------------------------|
E|--5-----5----5----5-------|---7-----------------------------------------------|
You Put Your Arms around me                  and i'm home


You can Strum the chords or pick for the rest of the song. Its all the same.
Tap to rate this tab
# A B C D E F G H I J K L M N O P Q R S T U V W X Y Z