Song name
# A B C D E F G H I J K L M N O P Q R S T U V W X Y Z

Christina Perri - A Thousand Years tab

Sorry, I can't figure out the verse. But here is the chorus:

1)I have died every day waiting for you
2)All along I believed I would find you

E|-1---1-3-1--|
B|3-3-3-3---1-|
G|-----------3|
D|------------|
A|------------|
E|------------|

Darlin' don't be afraid I have loved you for a
Time has brought yo' heart to me, I have loved you for a

E|-1---1-3-1-----|
B|3-3-3-3---1---1|
G|-----------3-3-|
D|---------------|
A|---------------|
E|---------------|

thousand years, I'll love you for a thousand more.
thousand years, I'll love you for thousand more.

E|-----------------|
B|4-3-----1-1-4-3-1|
G|---0-0-3-3-------|
D|-----------------|
A|-----------------|
E|-----------------|

Hope you like it! And of course, adjustments are always welcome!
Nameless.G. (Nameless Guitarist)
Tap to rate this tab
# A B C D E F G H I J K L M N O P Q R S T U V W X Y Z