Song name
# A B C D E F G H I J K L M N O P Q R S T U V W X Y Z

Christina Perri - I Dont Wanna Break chords

Highlighted       Show chord diagrams
As soon as I heard this I wanted to play along to it, these are the chords I used to 
play along! Constructive criticism is always welcomed, it eventually makes songs more 
accurate and fun for all of us. Hope you like it :)

Capo on 2nd fret.

C
Woke up, such a bad dream

F
I stayed, you were leaving

C
with my heart, you were stealing.

G
I don't care, I'd let you take it.

C
Showed up, like a good girl.

F
I fell, for your fable.

C
But I'm no, Cinderella,

G
I don't care, I'd let you take it.

C
Put us, back together.

F
You said, it's forever.

C
But I know, you're pretending.

F              G
I don't care, I'd let you take it

C          F
all again...

    C            F
And I just wanna love you

            C
don't wanna lose me,

            G
don't wanna lose you,

C          F
If it gets harder

     G
then I don't wanna break all alone,

I wanna break in your

               F
I, just, wanna love you.

            C
Don't wanna lose me,

            G
don't wanna lose you

C           F
If, it gets harder,

     C                          G
then I don't wanna break all alone

I wanna break in your


|-3-1-0----1-0--------------0--------|
|-------1------1-3--3-3-3-3---3-1----|
|------------------------------------|
|------------------------------------|
|------------------------------------|
|------------------------------------|

    C          F
And if it gets harder

     C                          G
then I don't wanna break all alone

                      C
I wanna break in your arms.

C
Sometimes, when I'm sleeping.

F
I still, feel you breathing.

C
You stole, all my good dreams.

F             G
I don't care, I'd let you take it.

C
Come on, listen closely.

F
To the sound, that our love made.

C
If you go, I would follow.

F
I don't care, I'd let you take it,

C         F
all again

    C            F
And I just wanna love you

            C
don't wanna lose me,

            G
don't wanna lose you,

C          F
If it gets harder

     G
then I don't wanna break all alone,

I wanna break in your

               F
I, just, wanna love you.

            C
Don't wanna lose me,

            G
don't wanna lose you

C           F
If, it gets harder,

     C                          G
then I don't wanna break all alone

I wanna break in your


|-3-1-0----1-0--------------0--------|
|-------1------1-3--3-3-3-3---3-1----|
|------------------------------------|
|------------------------------------|
|------------------------------------|
|------------------------------------|

    C           F
And if it, gets harder

     C                          G
then I don't wanna break all alone

I wanna break in your

|-3-1-0----1-0--------------0--------|
|-------1------1-3--3-3-3-3---3-1----|
|------------------------------------|
|------------------------------------|
|------------------------------------|
|------------------------------------|

    C            F
And I just wanna love you

            C
don't wanna lose me,

            G
don't wanna lose you,

C          F
If it gets harder

     G
then I don't wanna break all alone,

                      C
I wanna break in your arms.
Tap to rate this tab
 
# A B C D E F G H I J K L M N O P Q R S T U V W X Y Z