Song name
# A B C D E F G H I J K L M N O P Q R S T U V W X Y Z

Christina Perri - The Words tab

Hi there! Here's the tab :)  Play along to 
get the pattern timing down-

https://www.youtube.com/watch?v=zzCv4mnnbRY
 
I'm llguitar on instagram or come visit at
www.liveloveguitar.com  :)


STANDARD TUNING w/
CAPO ON 4



Intro- 

    Cadd9       G         D
e|----------------------------------|
B|--------3---------3---------3-----|
G|------0---0-----0---0-----2-------| x 2
D|------------------------0---------|
A|---3---------2--------------------|
E|----------------------------------|



Verse-

    Cadd9       G         D
e|----------------------------------|
B|--------3---------3---------3-----|
G|------0---0-----0---0-----2---2---| x 2
D|------------------------0---------|
A|---3---------2--------------------|
E|----------------------------------|

           Cadd9  G       D
All of the lights land on you
                Cadd9 G          D
The rest of the world fades from view




    Cadd9       G          Gm          D      
e|-------------------------------------------|
B|--------3---------3--------3----------3----|
G|------0---0-----0---0----0---0------2---2--| 
D|-------------------------------------------|
A|---3---------2---------1----------0--------|
E|-------------------------------------------|

               Cadd9  G   Gm      D      
And all of the love I see please, please 



      A#         G         D                     D
e|-----------------------------------------------2---|
B|-------3-----------3---------3-----------------3---|
G|-----2---3-------0---0-----2-------------------2---|
D|---3---------------------0--------0-2-4-7-4----0---|
A|-----------------------------------------------0---|
E|-------------3-------------------------------------|

A#      G       D
Say you feel it too
 
 


(I strum here on out, but you can continue the picking pattern if you want.)

               Cadd9   G      D
And all of the noise I hear inside
             Cadd9   G          D
Restless and loud  unspoken and wild
                 Cadd9   G
And all that you need to say
           Gm      D
To make it all go away
            A#       G        D
Is that you feel the same way too



(Strumming)
      D                                 Bm
And I know the scariest part is letting go
                                A
Cause love is a ghost you can't control
                                      Em
I promise you the truth can't hurt us now
           G*         A*          D      Cadd9 G D 
So let the words slip out of your mouth


Cadd9 G D



               Cadd9       G          D
And all of the stairs that lead me to you
               Cadd9  G           D
And all of the hell I had to walk through
               Cadd9   G       
But I wouldn't trade a day 
        Gm        D
For the chance to say
   A#          G         D
My love I'm in love with you





      D                                 Bm
And I know the scariest part is letting go
                                A
Cause love is a ghost you can't control
                                      E
I promise you the truth can't hurt us now
           G          A           Bm
So let the words slip out of your mouth



             **[010330]- Use this voicing for the 2 A#'s below**   
                  A#
I know that we're both afraid
                 D
We both made the same mistakes
        E                            Bm
An open heart is an open wound to you
                     A#
And in the wind of a heavy choice
           D
Love has a quiet voice
          E                           G
Still you mind now I'm yours to choo-oose





      D*                                  G*
And I know the scariest part is letting go
                                         A
Let my love be the light that guides you home


      D                                 G
And I know the scariest part is letting go
                                   A
Cause love is a ghost you can't control
                                      E
I promise you the truth can't hurt us now
           G*         A*          D    Cadd9 G D Cadd9 G D*
So let the words slip out of your mouth




Have fun and RATE :)
cristy♥guitar
Tap to rate this tab
# A B C D E F G H I J K L M N O P Q R S T U V W X Y Z