Song name
# A B C D E F G H I J K L M N O P Q R S T U V W X Y Z

Christina Perri - A Thousand Years Live tab

-------------------------------------------------------------------------------
		A THOUSAND YEARS (ACOUSTIC LIVE) - CHristina Perri
-------------------------------------------------------------------------------
Tabbed by: Butch R

Tuning: Standard Tuning (Capo 3rd fret)


INTRO:

e|-3-----------3-----------3-----------2p0------------|
B|-------3-----------3-----------3-----------0--------|
G|---------0-----------0-----------0-----------0------|
D|-----0-----------0-----------0-----------0----------|
A|----------------------------------------------------|
E|-3-----------3-----------3-----------2--------------|

e|-0-----------0-----------------0--------------------|
B|-------0-----------0-------------0---------0--------|
G|---------0-----------0-------0-----------0---0------|
D|-----2-----------2-------2/4-------4-5--------------|
A|----------------------------------------------------|
E|-0-----------0--------------------------------------|

e|-------------0-----------2-----------3--------------|
B|-1-----------------1-----------1-----------1--------|
G|-------0---------0---0-------0---0-------0---0------|
D|-----2---2------------------------------------------|
A|-3-----------3-----------3-----------3--------------|
E|----------------------------------------------------|

e|-3-----------3-----------2-----------2--------------|
B|-------3-----------3-----------3-----------3--------|
G|-----2---2-------2---2-------2---2-------2---2------|
D|-0-----------0-----------0-----------0--------------|
A|----------------------------------------------------|
E|----------------------------------------------------|


VERSE:

e|-----------------------------------------------------|
B|-------3-----------3-----------3-----------3---------|
G|---0-------0---0-------0---0-------0---0-------0-----|
D|-----2-----------2-----------2-----------2-----------|
A|-3-------3---3-------3---3-------3---3-------3-------|
E|-----------------------------------------------------|

e|-----------------------------------------------------|
B|-------3-----------3-----------3-----------3---------|
G|---0-------0---0-------0---0-------0---0-------0-----|
D|-----0-----------0-----------0-----------0-----------|
A|-2-------2---2-------2---2-------2---2-------2-------|
E|-----------------------------------------------------|

e|-----------------------------------------------------|
B|-------3-----------3-----------3-----------3---------|
G|---0-------0---0-------0---0-------0---0-------0-----|
D|-----2-----------2-----------0-----------2-----------|
A|-----------------------------------------------------|
E|-0-------0---0-------0---2-------2---3-------3-------|


VERSE 2:

e|-----------------------------------------------------|
B|-------3-----------3-----------3-----------3---------|
G|---0-------0---0-------0---0-------0---0-------0-----|
D|-----2-----------2-----------2-----------2-----------|
A|-3-------3---3-------3---3-------3---3-------3-------|
E|-----------------------------------------------------|

e|-----------------------------------------------------|
B|-------3-----------3-----------3-----------3---------|
G|---0-------0---0-------0---0-------0---0-------0-----|
D|-----0-----------0-----------0-----------0-----------|
A|-2-------2---2-------2---2-------2---2-------2-------|
E|-----------------------------------------------------|

e|-----------------------------------------------------|
B|-------3-----------3-----------3-----------3---------|
G|---0-------0---0-------0---0-------0---0-------0-----|
D|-----2-----------2-----------0-----------2-----------|
A|-----------------------------------------------------|
E|-0-------0---0-------0---2-------2---3-------3-------|


PRECHORUS (Strum):

       Am          Em    D
          One step clo---ser

e|-----0-----------0-----2----------------------------|
B|-----1-----------0-----3----------------------------|
G|-----2-----------0-----2----------------------------|
D|-----2-----------2-----0----------------------------|
A|-----0-----------2----------------------------------|
E|-----------------0----------------------------------|


CHORUS (Strum):

       G                             D
       I have died everyday waiting for you

e|-----3-----------------------------3----------------|
B|-----3-----------------------------3----------------|
G|-----0-----------------------------2----------------|
D|-----0-----------------------------0----------------|
A|-----2-----------------------------0----------------|
E|-----3-----------------------------2----------------|


       Em                             D
       Darling don't be afraid I have loved you

e|-----3-----------------------------3----------------|
B|-----3-----------------------------3----------------|
G|-----0-----------------------------2----------------|
D|-----2-----------------------------0----------------|
A|-----2-----------------------------0----------------|
E|-----0-----------------------------2----------------|

             C                                     D
       for a thou----sand years. I loved you for a thousand more.

e|-----------0-----2------3------------------------3--------2----------------|
B|-----------1-----1------1------------------------3--------3----------------|
G|-----------0-----0------0------------------------2--------2----------------|
D|-----------2-------------------------------------0--------0----------------|
A|-----------3-----3------3--------------------------------------------------|
E|---------------------------------------------------------------------------|


FILL BEFORE NEXT VERSE (Strum):

        Cadd9     

e|-----3----3----2----2------|
B|-----3----3----3----3------|
G|-----0----0----0----0------|
D|-----2----2----------------|
A|-----3----3----3----3------|
E|-----0----0----0----0------|

Then repeat verse, prechorus and chorus

************************************

| /   slide up
| \   slide down
| h   hammer-on
| p   pull-off
| ~   vibrato
| +   harmonic
| x   Mute note
| b   Bend
| pb  Pre-bend
| br  Bend release
| pbr Pre-bend release
| brb Bend release bend

************************************
Tap to rate this tab
# A B C D E F G H I J K L M N O P Q R S T U V W X Y Z