Song name
# A B C D E F G H I J K L M N O P Q R S T U V W X Y Z

Christina Sturmer - Mitten Unterm Jahr tab

Intro

e|-------------------------------------------|
h|------------0--0h1--0-----------0--0h1--0--|
G|---------0-------------------0-------------|
D|-------------------------------------------|
A|------2-------------------2----------------|
E|---3-------------------3-------------------|


e|------------1--3--5-----------1--3--5------|
h|---------3-----3--3--------3-----3--3------|
G|------2-----------------2------------------|
D|---0-----------------0---------------------|
A|-------------------------------------------|
E|-------------------------------------------|


Verse 1

e|-------------------------------------------|
h|------------0--0h1--0-----------0--0h1--0--|
G|---------0-------------------0-------------|
D|-------------------------------------------|
A|------2-------------------2----------------|
E|---3-------------------3-------------------|

e|------------1--3--5-----------1--3--5------|
h|---------3-----3--3--------3-----3--3------|
G|------2-----------------2------------------|
D|---0-----------------0---------------------|
A|-------------------------------------------|
E|-------------------------------------------|

e|-------------------------------------------|
h|------------0--0h1--0-----------0--0h1--0--|
G|---------0-------------------0-------------|
D|-------------------------------------------|
A|------2-------------------2----------------|
E|---3-------------------3-------------------|

e|------------1--3--5-----------1--3--5------|
h|---------3-----3--3--------3-----3--3------|
G|------2-----------------2------------------|
D|---0-----------------0---------------------|
A|-------------------------------------------|
E|-------------------------------------------|

e|-------------------------------------------|
h|------------1--1h3--1-----------1--1h3--1--|
G|---------2-------------------2-------------|
D|------2-------------------2----------------|
A|---0-------------------0-------------------|
E|-------------------------------------------|

e|-------------------------------------------|
h|-------------------------------------------|
G|------------0--0h2--0-----------0--0h2--0--|
D|---------2-------------------2-------------|
A|------2-------------------2----------------|
E|---0-------------------0-------------------|

e|------------2--3--5-----------2--3--5------|
h|---------3-----3--3--------3-----3--3------|
G|------2-----------------2------------------|
D|---0-----------------0---------------------|
A|-------------------------------------------|
E|-------------------------------------------|

e|-------------------------------3-----------|
h|------------0--0h1--0----------3-----------|
G|---------0---------------------0-----------|
D|-------------------------------0-----------|
A|------2------------------------2-----------|
E|---3---------------------------3-----------|


Chorus 1

e|-------------------------------------------|
h|------------1--1h3--1-----------1--1h3--1--|
G|---------0-------------------0-------------|
D|------2-------------------2----------------|
A|---3-------------------3-------------------|
E|-------------------------------------------|

e|-------------------------------------------|
h|------------0--0h1--0-----------0--0h1--0--|
G|---------0-------------------0-------------|
D|-------------------------------------------|
A|------2-------------------2----------------|
E|---3-------------------3-------------------|

e|-------------------------------------------|
h|------------2--2h3--2-----------1--1h3--1--|
G|---------2-------------------0-------------|
D|------2-------------------2----------------|
A|---0-------------------3-------------------|
E|-------------------------------------------|

e|-------------------------------3-----------|
h|------------0--0h1--0----------3-----------|
G|---------0---------------------0-----------|
D|-------------------------------0-----------|
A|------2------------------------2-----------|
E|---3---------------------------3-----------|


Verse 2

e|-------------------------------------------|
h|------------0--0h1--0-----------0--0h1--0--|
G|---------0-------------------0-------------|
D|-------------------------------------------|
A|------2-------------------2----------------|
E|---3-------------------3-------------------|

e|------------1--3--5-----------1--3--5------|
h|---------3-----3--3--------3-----3--3------|
G|------2-----------------2------------------|
D|---0-----------------0---------------------|
A|-------------------------------------------|
E|-------------------------------------------|

e|-------------------------------------------|
h|------------0--0h1--0-----------0--0h1--0--|
G|---------0-------------------0-------------|
D|-------------------------------------------|
A|------2-------------------2----------------|
E|---3-------------------3-------------------|

e|------------1--3--5-----------1--3--5------|
h|---------3-----3--3--------3-----3--3------|
G|------2-----------------2------------------|
D|---0-----------------0---------------------|
A|-------------------------------------------|
E|-------------------------------------------|

e|-------------------------------------------|
h|------------1--1h3--1-----------1--1h3--1--|
G|---------2-------------------2-------------|
D|------2-------------------2----------------|
A|---0-------------------0-------------------|
E|-------------------------------------------|

e|-------------------------------------------|
h|--------------------------------0--0h1--0--|
G|------------0--0h2--0--------0-------------|
D|---------2---------------------------------|
A|------2-------------------2----------------|
E|---0-------------------3-------------------|

e|------------1--3--5------------------------|
h|---------3-----3--3--------------1---------|
G|------2-----------------------2-----2------|
D|---0-----------------------3-----------3---|
A|------------------------3------------------|
E|---------------------1---------------------|

e|-------------------------------3-----------|
h|------------0--0h1--0----------3-----------|
G|---------0---------------------0-----------|
D|-------------------------------0-----------|
A|------2------------------------2-----------|
E|---3---------------------------3-----------|


Chorus 2

e|-------------------------------------------|
h|------------1--1h3--1-----------1--1h3--1--|
G|---------0-------------------2-------------|
D|------2-------------------2----------------|
A|---3-------------------0-------------------|
E|-------------------------------------------|

e|-------------------------------------------|
h|------------0--0h1--0-----------0--0h1--0--|
G|---------0-------------------0-------------|
D|-------------------------------------------|
A|------2-------------------2----------------|
E|---3-------------------3-------------------|

e|-------------------------------------------|
h|------------2--2h3--2-----------1--1h3--1--|
G|---------2-------------------0-------------|
D|------2-------------------2----------------|
A|---0-------------------3-------------------|
E|-------------------------------------------|

e|-------------------------------3-----------|
h|------------0--0h1--0----------3-----------|
G|---------0---------------------0-----------|
D|-------------------------------0-----------|
A|------2------------------------2-----------|
E|---3---------------------------3-----------|
Tap to rate this tab
# A B C D E F G H I J K L M N O P Q R S T U V W X Y Z