Song name
# A B C D E F G H I J K L M N O P Q R S T U V W X Y Z

Christina Vidal - Take Me Away tab

I did this for a school performance (chick singers), and i had to re-tab the whole 
so i thought id post it.

x - mute
/ - slide up
\ - slide down
^ - bend up
> - bend up then bend back
Intro:

|----------------|----------------|----------------|----------------|
|----------------|----------------|----------------|----------------|
|----------------|----------------|----------------|----------------|
|-4-4-x-x-x-x-x-x|-4-4-x-x-x-x-x-x|-4-4-x-x-4-4-x-x|-4-4-4-4-4-4-4-4|
|-4-4-x-x-x-x-x-x|-4-4-x-x-x-x-x-x|-4-4-x-x-4-4-x-x|-4-4-4-4-4-4-4-4|
|-2-2-x-x-x-x-x-x|-2-2-x-x-x-x-x-x|-2-2-x-x-2-2-x-x|-2-2-2-2-2-2-2-2|

|------------|--------------|------------|--------------|
|------------|--------------|------------|--------------|
|------------|--------------|------------|--------------|
|-----0-1-2-2|-3-2-0-2-2-1-0|-----0-1-2-2|-3-2-0-2-2-1-0|
|-2-2-0-1-2-2|-3-2-0-2-2-1-0|-2-2-0-1-2-2|-3-2-0-2-2-1-0|
|-2-2--------|--------------|-2-2--------|--------------|

Verse:

|------------|--------------|
|------------|--------------|
|------------|--------------|
|------------|--------------|
|-----0-1-2-2|-3-2-0-2-2-1-0|
|-2-2--------|--------------|   (x4 repeat)

Chorus:

|----------------|----------------|----------------|----------------|
|----------------|----------------|----------------|----------------|
|-7-7-7-7-7-7-7-7|----------------|-4-4-4-4-4-4-4-4|-2-2-2-2-2-2-2-2|
|-7-7-7-7-7-7-7-7|-4-4-4-4-4-4-4-4|-4-4-4-4-4-4-4-4|-2-2-2-2-2-2-2-2|
|-5-5-5-5-5-5-5-5|-4-4-4-4-4-4-4-4|-2-2-2-2-2-2-2-2|-0-0-0-0-0-0-0-0|
|----------------|-2-2-2-2-2-2-2-2|----------------|----------------|

|----------------|----------------|----------------|----------------|
|----------------|----------------|----------------|----------------|
|-7-7-7-7-7-7-7-7|----------------|-4-4-4-4-2-2-2-2|-7-7-7-7-9-9-9-9|
|-7-7-7-7-7-7-7-7|-4-4-4-4-4-4-4-4|-4-4-4-4-2-2-2-2|-7-7-7-7-9-9-9-9|
|-5-5-5-5-5-5-5-5|-4-4-4-4-4-4-4-4|-2-2-2-2-0-0-0-0|-5-5-5-5-7-7-7-7|
|----------------|-2-2-2-2-2-2-2-2|----------------|----------------|

|----------------|----------------|----------------|
|----------------|----------------|----------------|
|-6-6-6-6-6-6-6-6|-6-6-6-6-6-6-6-6|-6-6-6-6-6-6-6-6|
|-6-6-6-6-6-6-6-6|-6-6-6-6-6-6-6-6|-6-6-6-6-6-6-6-6|
|-4-4-4-4-4-4-4-4|-4-4-4-4-4-4-4-4|-4-4-4-4-4-4-4-4|
|----------------|----------------|----------------|

Verse 2:
This time on the fourth repetion, instead of playing the whole thing, only play the 
half and add a slide down on the top 2 notes from the 12th fret.

|------------|--------------|
|------------|--------------|
|------------|--------------|
|------------|--------------|
|-----0-1-2-2|-3-2-0-2-2-1-0|
|-2-2--------|--------------|   (x8 repeat)

Chorus:

|----------------|----------------|----------------|----------------|
|----------------|----------------|----------------|----------------|
|-7-7-7-7-7-7-7-7|----------------|-4-4-4-4-4-4-4-4|-2-2-2-2-2-2-2-2|
|-7-7-7-7-7-7-7-7|-4-4-4-4-4-4-4-4|-4-4-4-4-4-4-4-4|-2-2-2-2-2-2-2-2|
|-5-5-5-5-5-5-5-5|-4-4-4-4-4-4-4-4|-2-2-2-2-2-2-2-2|-0-0-0-0-0-0-0-0|
|----------------|-2-2-2-2-2-2-2-2|----------------|----------------|

|----------------|----------------|----------------|----------------|
|----------------|----------------|----------------|----------------|
|-7-7-7-7-7-7-7-7|----------------|-4-4-4-4-2-2-2-2|-7-7-7-7-9-9-9-9|
|-7-7-7-7-7-7-7-7|-4-4-4-4-4-4-4-4|-4-4-4-4-2-2-2-2|-7-7-7-7-9-9-9-9|
|-5-5-5-5-5-5-5-5|-4-4-4-4-4-4-4-4|-2-2-2-2-0-0-0-0|-5-5-5-5-7-7-7-7|
|----------------|-2-2-2-2-2-2-2-2|----------------|----------------|

|----------------|----------------|----------------|
|----------------|----------------|----------------|
|-6-6-6-6-6-6-6-6|-6-6-6-6-6-6-6-6|-6-6-6-6--------|
|-6-6-6-6-6-6-6-6|-6-6-6-6-6-6-6-6|-6-6-6-6--------|
|-4-4-4-4-4-4-4-4|-4-4-4-4-4-4-4-4|-4-4-4-4-\12----|
|----------------|----------------|---------\12----|

Solo:

|-------------------------|-------------------------------------|
|-------------------------|-12--12-12-12-10---------------------|
|----------------->3-2-0--|-----------------12--11-11-11-9------|
|-4--4-4-4--2-0-4--------4|--------------------------------12-15|
|-------------------------|-------------------------------------|
|-------------------------|-------------------------------------|

|-14---14-14-14-12----------------------|---^13--2--------|
|------------------15-14--14-14-14-12---|-/8------15-12-15|
|-------------------------------------14|-----------------|
|---------------------------------------|-----------------|
|---------------------------------------|-----------------|
|---------------------------------------|-----------------|

|-12-12-12-12-12-12-12-12-13-13-13-13-13|---------------------------------|
|---------------------------------------|-------14------------------------|
|---------------------------------------|-13-13-13--13-11-9-11-13-11-9-9-9|
|---------------------------------------|---------------------------------|
|---------------------------------------|---------------------------------|
|---------------------------------------|---------------------------------|

|-----12--14----|
|-14------------|
|---------------|
|---------------|
|---------------|
|---------------|

Chorus:
After the last note on the solo you hold it for the first bar while the bass and drums 
the solo, so you miss the first Dm chord, but after that just play ahead.

|----------------|----------------|----------------|
|----------------|----------------|----------------|
|----------------|-4-4-4-4-4-4-4-4|-2-2-2-2-2-2-2-2|
|-4-4-4-4-4-4-4-4|-4-4-4-4-4-4-4-4|-2-2-2-2-2-2-2-2|
|-4-4-4-4-4-4-4-4|-2-2-2-2-2-2-2-2|-0-0-0-0-0-0-0-0|
|-2-2-2-2-2-2-2-2|----------------|----------------|

|----------------|----------------|----------------|----------------|
|----------------|----------------|----------------|----------------|
|-7-7-7-7-7-7-7-7|----------------|-4-4-4-4-2-2-2-2|-7-7-7-7-9-9-9-9|
|-7-7-7-7-7-7-7-7|-4-4-4-4-4-4-4-4|-4-4-4-4-2-2-2-2|-7-7-7-7-9-9-9-9|
|-5-5-5-5-5-5-5-5|-4-4-4-4-4-4-4-4|-2-2-2-2-0-0-0-0|-5-5-5-5-7-7-7-7|
|----------------|-2-2-2-2-2-2-2-2|----------------|----------------|

|----------------|----------------|----------------|----------------|
|----------------|----------------|----------------|----------------|
|-7-7-7-7-7-7-7-7|----------------|-4-4-4-4-4-4-4-4|-2-2-2-2-2-2-2-2|
|-7-7-7-7-7-7-7-7|-4-4-4-4-4-4-4-4|-4-4-4-4-4-4-4-4|-2-2-2-2-2-2-2-2|
|-5-5-5-5-5-5-5-5|-4-4-4-4-4-4-4-4|-2-2-2-2-2-2-2-2|-0-0-0-0-0-0-0-0|
|----------------|-2-2-2-2-2-2-2-2|----------------|----------------|

|----------------|----------------|----------------|----------------|
|----------------|----------------|----------------|----------------|
|-7-7-7-7-7-7-7-7|----------------|-4-4-4-4-2-2-2-2|-7-7-7-7-9-9-9-9|
|-7-7-7-7-7-7-7-7|-4-4-4-4-4-4-4-4|-4-4-4-4-2-2-2-2|-7-7-7-7-9-9-9-9|
|-5-5-5-5-5-5-5-5|-4-4-4-4-4-4-4-4|-2-2-2-2-0-0-0-0|-5-5-5-5-7-7-7-7|
|----------------|-2-2-2-2-2-2-2-2|----------------|----------------|

|----------------|----------------|----------------|
|----------------|----------------|----------------|
|-6-6-6-6-6-6-6-6|-6-6-6-6-6-6-6-6|-6-6-6-6-6-6-6-6|
|-6-6-6-6-6-6-6-6|-6-6-6-6-6-6-6-6|-6-6-6-6-6-6-6-6|
|-4-4-4-4-4-4-4-4|-4-4-4-4-4-4-4-4|-4-4-4-4-4-4-4-4|
|----------------|----------------|----------------|

Coda:
Hold this note until the last bar of singing, and thats the whole song.

|-------|
|-12----|
|-------|
|-------|
|-------|
|-------|
Tap to rate this tab
# A B C D E F G H I J K L M N O P Q R S T U V W X Y Z