Song name
# A B C D E F G H I J K L M N O P Q R S T U V W X Y Z

Christmas - Auld Lang Syne tab

----------------------------------------------------------------------------
			           Auld Lang Syne
----------------------------------------------------------------------------

Tabbed by: Dave S. 
Email: Prine-Prine@Hotmail.com

Tuning: Standard




Gtr I (E A D G B E)  

  Q=100
  Gtr I
  
|--------------|-0------------|-0----------0--|-3--5----5----|-5---|
|----1----0-1--|----3----1-3--|---3-1------1--|-1------------|-----|
|-0--0------0--|----0------0--|-----0----0-0--|-------5------|-----|
|-------2------|-------0------|--------2------|----3------3--|-----|
|----3------3--|--------------|-----3------3--|-3------------|-----|
|--------------|----3------3--|---------------|--------------|-----|


  
|-3----0-0-----|-----------0---|--------------|-----------|-5---|
|-1------1--1--|-3----1-3----3-|-1------------|-1---------|-----|
|-0------0-----|-0------0------|-2----2-2--0--|-0---------|-----|
|----2---------|----0----------|-2--2---3-----|-----------|-----|
|-3------3-----|---------------|-0------3-----|-3---------|-----|
|--------------|-3------3------|--------1-----|-----------|-----|


  
|-3----0-0-----|-----------5--|-3----0-0--3--|-5----5----5--|
|-1------1--1--|-3----1-3-----|-1------1-----|--------------|
|-0------0-----|-0------0-----|-0------0-----|----5---------|
|----2---------|----0---------|----2------2--|-3------3-----|
|-3------3-----|--------------|-3------3-----|--------------|
|--------------|-3------3-----|--------------|--------------|


  
|-3----0-0-----|-----------0---|--------------|-------|
|-1------1--1--|-3----1-3----3-|-1------------|-1-----|
|-0------0-----|-0------0------|-2----2-2--0--|-0-----|
|----2---------|----0----------|-2--2---3-----|-------|
|-3------3-----|---------------|-0------3-----|-3-----|
|--------------|-3------3------|--------1-----|-------|


  
|--------------|-0------------|-0----------0--|-3--5----5----|-5---|
|----1----0-1--|----3----1-3--|---3-1------1--|-1------------|-----|
|-0--0------0--|----0------0--|-----0----0-0--|-------5------|-----|
|-------2------|-------0------|--------2------|----3------3--|-----|
|----3------3--|--------------|-----3------3--|-3------------|-----|
|--------------|----3------3--|---------------|--------------|-----|


  
|-3----0-0-----|-----------0---|--------------|---------5--|
|-1------1--1--|-3----1-3----3-|-1------------|-1----------|
|-0------0-----|-0------0------|-2----2-2--0--|-0----------|
|----2---------|----0----------|-2--2---3-----|------------|
|-3------3-----|---------------|-0------3-----|-3----------|
|--------------|-3------3------|--------1-----|------------|


|-3----0-0-----|-----------5--|-3----0-0--3--|-5----5----8--|
|-1------1--1--|-3----1-3-----|-1------1-----|--------------|
|-0------0-----|-0------0-----|-0------0-----|----5------8--|
|----2---------|----0---------|----2------2--|-3------3--7--|
|-3------3-----|--------------|-3------3-----|--------------|
|--------------|-3------3-----|--------------|--------------|


  
|-3----0-0-----|-----------0---|--------------|-------|
|-1------1--1--|-3----1-3----3-|-1------------|-1-----|
|-0------0-----|-0------0------|-2----2-2--0--|-0-----|
|----2---------|----0----------|-2--2---3-----|-------|
|-3------3-----|---------------|-0------3-----|-3-----|
|--------------|-3------3------|--------1-----|-------|


| /  slide up
| \  slide down
| h  hammer-on
| p  pull-off
| ~  vibrato
| +  harmonic
| x  Mute note
===========================================================================
Tap to rate this tab
# A B C D E F G H I J K L M N O P Q R S T U V W X Y Z