Guitaretab - guitar tabs
Song name
# A B C D E F G H I J K L M N O P Q R S T U V W X Y Z

Christmas - Greensleeves tab

From cscon143@uoft02.utoledo.edu ()
~Newsgroups: alt.guitar.tab
~Subject: TAB: Greensleeves
~Date: 4 Nov 92 14:32:01 EST

In answer to the request for Christmas Carols, here's my arrangement of
What Child is This or Greensleeves.	


		What Child is This? (Greensleeves)

         Am                G                 Am                E
|-----|--------0--1--0--|-----------------|-----------------|--------------|  
|-----|--1--3-----------|--3--0--------0--|--1--------------|--0-----------|
|--2--|-----------------|--------0--2-----|-----2--2--1--2--|-----1-----2--|
|-----|-----------------|-----------------|-----------------|--------2-----|
|-----|--0-----0--------|-----------------|--0-----0--------|--2-----------|
|-----|-----------------|--3-----3--------|-----------------|--------0-----|

   Am                G                 Am       E           Am            
|--------0--1--0--|-----------------|--------------------|-----------|  
|--1--3-----------|--3--0--------0--|--1--0--------------|-----------| 
|-----------------|--------0--2-----|--------2--1-----1--|--2--2--2--| 
|-----------------|-----------------|--------------4-----|-----------|  
|--0-----0--------|-----------------|--0-----0--2--------|--0-----0--|  
|-----------------|--3-----3--------|--------------------|-----------| 

   C              G                 Am                E
|--3--3--1--0--|-----------------|-----------------|-----------|
|--------------|--2--0--------0--|--1--------------|--0--------|
|--------------|--------0--2-----|-----2--2--1--2--|-----1-----|
|--------------|-----------------|-----------------|--------2--|
|--3--3--------|-----------------|--0-----0--------|--2--------|
|--------------|--3-----3--------|-----------------|--------0--|

   C              G                 Am       E           Am            
|--3--3--1--0--|-----------------|--------------------|--------| 
|--------------|--2--0--------0--|--1--0--------------|--------| 
|--------------|--------0--2-----|--------2--1-----1--|--2--2--| 
|--------------|-----------------|--------------4-----|--------|  
|--3--3--------|-----------------|--0-----0-----------|--0--0--|  
|--------------|--3-----3--------|-----------0--------|--------| 

					- Erik Mayer 
___
  Internet: cscon143@uoft02.utoledo.edu    
  Bitnet: cscon143@uoft02.BITNET
[ Tab from: http://www.guitaretab.com/c/christmas/12168.html ]
Related for Greensleeves tab
Greensleeves chords by Christmas