Song name
# A B C D E F G H I J K L M N O P Q R S T U V W X Y Z

Christmas - Jolly Old Saint Nicholas tab

Ok this is just a little thing i figured out when i was bored out of my skull over the
hollidays. Play with really freakin' heavy distortion

e|--------------------------------------------------|
B|--------------------------------------------------|
G|--------------------------------------------------|
D|--------------------------------------------------|
A|-13-13-13-13--11-11-11--9-9-9-9-13----------------|
E|-11-11-11-11---9--9--9--7-7-7-7-11----------------|

e|--------------------------------------------------|
B|--------------------------------------------------|
G|--------------------------------------------------|
D|--------------------------------------------------|
A|-6-6-6-6-4-4-9--11-9-11-13-11---------------------|
E|-4-4-4-4-2-2-7---9-7--9-11--9---------------------|

e|--------------------------------------------------|
B|--------------------------------------------------|
G|--------------------------------------------------|
D|--------------------------------------------------|
A|-13-13-13-13--11-11-11--9-9-9-9-13----------------|
E|-11-11-11-11---9--9--9--7-7-7-7-11----------------|

e|--------------------------------------------------|
B|--------------------------------------------------|
G|--------------------------------------------------|
D|--------------------------------------------------|
A|-6-6-6-6-4-4-9--11-9-11-13-9----------------------|
E|-4-4-4-4-2-2-7---9-7--9-11-7----------------------|

So there you go.
Tap to rate this tab
 
# A B C D E F G H I J K L M N O P Q R S T U V W X Y Z