Guitaretab - guitar tabs
Song name
# A B C D E F G H I J K L M N O P Q R S T U V W X Y Z

Christmas - Rudolph The Red Nosed Reindeer tab

e|---------8--------------------8-7-|
B|8-10--8----10-8----8-10-8-10-8----|
G|--------9-------------------------|
D|----------------------------------|
A|----------------------------------|
E|----------------------------------|

e|--------7------------------------|
B|6-8-6----/10-8---8-10-8-10-8-10--|
G|------7------------------------9-|
D|---------------------------------|
A|---------------------------------|
E|---------------------------------|

e|---------8--------------------8-7-|
B|8-10--8----10-8----8-10-8-10-8----|
G|--------9-------------------------|
D|----------------------------------|
A|----------------------------------|
E|----------------------------------|

e|--------7--------------------10-8-|
B|6-8-6----/10-8---8-10-8-10-8------|
G|------7---------------------------|
D|----------------------------------|
A|----------------------------------|
E|----------------------------------|
[ Tab from: http://www.guitaretab.com/c/christmas/12196.html ]
e|------8-------------------------|
B|10-10---10--8-8-------10-8------|
G|-------------9-----10------10-9-|
D|--------------------------------|
A|--------------------------------|
E|--------------------------------|

e|---------5-7-7-10----8---8-7-5-----|
B|---5--8-----------------------8-6--|
G|7--------------------------------7-|
D|-----------------------------------|
A|-----------------------------------|
E|-----------------------------------|

e|---------8--------------------8-7-|
B|8-10--8----10-8----8-10-8-10-8----|
G|--------9-------------------------|
D|----------------------------------|
A|----------------------------------|
E|----------------------------------|

e|--------7---------------------------10--8-|
B|6-8-6----/10-8-----8---10-8---10-8--------|
G|------7-----------------------------------|
D|------------------------------------------|
A|------------------------------------------|
E|------------------------------------------|

e|-------8---10-8-|
B|8-10-8----------|
G|------9---------|
D|----------------|
A|----------------|
E|----------------|
Related for Rudolph The Red Nosed Reindeer tab
×
Best way to learn
"Rudolph The Red Nosed Reindeer"