Song name
# A B C D E F G H I J K L M N O P Q R S T U V W X Y Z

Christmas - Santa Claus Is Coming To Town tab

|--------------------------------------------------------------------|
|--------------0-1-1-------------------------------------------------|
|------0-0-0-2-------------0-0-0-2-0-------0-------------------------|
|0-2-3---------------0-2-3-----------3-3-2-----2-0-3-----------------|
|--------------------------------------------3-------2-3-------------|
|--------------------------------------------------------------------|

|----------------------------0---------------------------------------|
|1-3-1-0-1-----1-3-1-0-1---3---3-2-3-0-0-0-0-1-3-1-0-----1-----------|
|----------2-2-----------2---------------------------2-0-------------|
|--------------------------------------------------------------------|
|--------------------------------------------------------------------|
|--------------------------------------------------------------------|

|--------------------------------------------------------------------|
|--------------0-1-1---------------------------------3-1-------------|
|------0-0-0-2-------------0-0-0-2-0-------0-------------------------|
|0-2-3---------------0-2-3-----------3-3-2-----2-0-3-----------------|
|--------------------------------------------3-----------------------|
|--------------------------------------------------------------------|
Tap to rate this tab
# A B C D E F G H I J K L M N O P Q R S T U V W X Y Z