Song name
# A B C D E F G H I J K L M N O P Q R S T U V W X Y Z

Christmas - What Child Is This tab

#

From: GLove1012@aol.com


What Child is This?
Folk Ballad
Trascribed 5/29/96

A lovely classical peice.  I use a "claw" method.
Kind of Mid-Evil, you dig?

   [..........fig.1.........]                  [fig.1]
----------0--1-0--------------------------------------------------------
---1--0-3--------3-0-----0--1----------0-----0---------0----------------
-2-------------------0-2-------2-2-1-2---1---------------2-1----1-2-2---
---------------------------------3-----2---2-----------------4----------
---0----2-3----------2------0-------------------------------------0-0---
-----------------3-------------------------0---------------0------------


 [........fig.2.....]                          [fig.2]
-3-3--2-0---------------------------------------------------------------
----------3-0-----0-1------------------0---------------0----------------
--------------0-2--------------2-2-1-2---1---------------2-1----1-2-2---
-2-2-----------------------------3-----2---2-----------------4----------
-3-3----------2-----0---------------------------------------------0-0---
----------3--------------------------------0---------------0------------
Tap to rate this tab
 
# A B C D E F G H I J K L M N O P Q R S T U V W X Y Z