Song name
# A B C D E F G H I J K L M N O P Q R S T U V W X Y Z

Christmas - Jingle Bells tab

Intro
E]---0-0-0--0-0-0--0-3-----0~~--1-1-1~-11-0-0~-000------0---3------[
B]---------------------1-3--------------------------3-3---3--------[
G]-----------------------------------------------------------------[
D]-----------------------------------------------------------------[
A]-----------------------------------------------------------------[
E]-----------------------------------------------------------------[

Verse
E]-------1-0--------------2-0-------------3-0---------4-4-2-1-2----[
B]---0-0-----3-0~~----0-0-----3-1~~---0-0-----4-2~~----------------[
G]-----------------------------------------------------------------[
D]-----------------------------------------------------------------[
A]-----------------------------------------------------------------[
E]-----------------------------------------------------------------[

E]-------1-0--------------2-0------------1-1-0-3-3-3-3-5-2-0-----3-[
B]---0-0-----3-0~~----0-0-----3-1~~--0-0---------------------3-1---[
G]-----------------------------------------------------------------[
D]-----------------------------------------------------------------[
A]-----------------------------------------------------------------[
E]-----------------------------------------------------------------[

Outro
E]--0-0-0--0-0-0--0-3-----0~~--1-1-1-1-1-0-0-0-0-3-3-0-------------[
B]--------------------1-3------------------------------3-1~~-------[
G]-----------------------------------------------------------------[
D]-----------------------------------------------------------------[
A]-----------------------------------------------------------------[
E]-----------------------------------------------------------------[


Order:

Intro  2x
Verse  1x
Intro  1x
Outro  1x
Tap to rate this tab
# A B C D E F G H I J K L M N O P Q R S T U V W X Y Z