Song name
# A B C D E F G H I J K L M N O P Q R S T U V W X Y Z

Christoffer Brandsborg - Stunning Beauty tab

This is my first "original" guitar song. 
This is composed and arranged by me. 
If you want to see me playing it, watch my youtube channel: tomanu7


Title: Stunning Beauty - Christoffer Brandsborg (Guitar Arrangement)
Capo: 7-9 fret
Chords used: C, Cadd9, G, Am, F 

Tabs:

Intro:

E|--0--3--3s5----------5--3--0--0------------------------0---|
B|---------------------------------3----------3-----1h3------|
G|-------------0----0-----------------------0----------------|
D|---------------------------------------0-------0-----------|
A|-------------------------------------------------------3---|
E|--------1------1-----1--------------3----------------------|

E|--------------0h1p0--------------------0--3--3s5-----------|
B|-----1---------------3--3-----------3----------------------|
G|--0-----0--0---------------------0----------------0-----0--|
D|------------------------------0----------------------------|
A|-----------------------------------------------------------|
E|---------------------------3-----------------1-------1-----|

E|--5--3--5--5s7--7--5--7--8-----7-----3p0--3s5--------------|
B|-----------------------------------------------------------|
G|----------------------------0-----0-------------0----------|
D|-----------------------------------------------------------|
A|-----------------------------------------------------------|
E|--1--------1s3--3--------5----------------1--------1-------|

E|--5--3--0--0-----------------------------------------------|
B|--------------3-----------3-----1p0--1-----------1---------|
G|-----------------------0----------------------0-----0------|
D|--------------------0--------0-------------2-----------2---|
A|----------------------------------------3------------------|
E|--1--------------3-----------------------------------------|

E|--------0-------------0-1--0--0-----------------0--3--3s5--|
B|--1--3--------1------------------3-----------3-------------|
G|-----------0-----0--0--------------------0-----------------|
D|--------------------------------------0--------------------|
A|--------3-------------3-3----------------------------------|
E|-----------------------------------3------------------1----|

E|------------5--3--0--0-------------------------------------|
B|------------------------3-----------3----------------------|
G|---0-----0-----------------------0-------------------------|
D|------------------------------0--------0-------------------|
A|-----------------------------------------------------------|
E|------1-----1--------------3-------------------------------|

E|--5s7--7s8--8--7--3p0--3s5----5--3--0--0-------------------|
B|------------------------------------------3--------3-1p0-1-|
G|-------------------------------------------------0-------0-|
D|-----------------------------------------------0---------2-|
A|---------------------------------------------------------3-|
E|-------5----5-----------1--1--1--------------3-------------|


1 Vers:

E|--------3--3--1--0------------------------------0--0--1--0-|
B|--1--3--------------3--1--3-----------3---1--3-------------|
G|-----------------------------------0-----------------------|
D|--------------------------------0--------------------------|
A|--------3---------------------------------------0----------|
E|-----------------------------3-----------------------------|

E|------------------------------3--3--1--0-------------------|
B|--1h3--1-----------1-----1h3--------------3--1--3--------3-|
G|----------------2--------------------------------------0---|
D|-------------3--------3------------------------------0-----|
A|------------------------------3----------------------------|
E|----------1---------------------------------------3--------|

E|-------0--0--1--0------------------------------------------|
B|--1h3--------------3--1-----------1------------------------|
G|-------------------------------2-----2-----2---------------|
D|----------------------------3-----------3------------------|
A|-------0---------------------------------------------------|
E|-------------------------1---------------------------------|

Chorus:

E|-----------------------------------------------3--3--0--3--|
B|--3--3--1--3-----3--3--1--3-----3--3--1--3-----1--1--1--1--|
G|--0--0--0--0-----0--0--0--0-----2--2--2--2-----2--------2-2|
D|--2-----------2-----------------------------2--3--------3--|
A|--3--------3-----------------2--0--------0-----------------|
E|-----------------3--------3--------------------------------|

E|-----------------------------------------------3--3--0-----|
B|--3--3--1--3-----3--3--1--3-----3--3--1--3-----1--1--1-----|
G|--0--0--0--0-----0--0--0--0-----2--2--2--2-----2-----------|
D|--2-----------2-----------------------------2--3-----------|
A|--3--------3-----------------2--0--------0-----------------|
E|-----------------3--------3--------------------------------|

E|-----------------------------------------------------------|
B|--3-----1--0--1-----------1--------------------------------|
G|-----2-----------------0-----0-----0-----------------------|
D|--3-----------------2-----------2--------------------------|
A|-----------------3-----------------------------------------|
E|-----------------------------------------------------------|


2 Vers:

E|--------3--3--1--0------------------------------0--0--1--0-|
B|--1--3--------------3--1--3-----------3---1--3-------------|
G|-----------------------------------0-----------------------|
D|--------------------------------0--------------------------|
A|--------3---------------------------------------0----------|
E|-----------------------------3-----------------------------|

E|------------------------------3--3--1--0-------------------|
B|--1h3--1-----------1-----1h3--------------3--1--3--------3-|
G|----------------2--------------------------------------0---|
D|-------------3--------3------------------------------0-----|
A|------------------------------3----------------------------|
E|----------1---------------------------------------3--------|

E|-------0--0--1--0------------------------------------------|
B|--1h3--------------3--1-----------1------------------------|
G|-------------------------------2-----2-----2---------------|
D|----------------------------3-----------3------------------|
A|-------0---------------------------------------------------|
E|-------------------------1---------------------------------|

Chorus:

E|-----------------------------------------------3--3--0--3--|
B|--3--3--1--3-----3--3--1--3-----3--3--1--3-----1--1--1--1--|
G|--0--0--0--0-----0--0--0--0-----2--2--2--2-----2--------2-2|
D|--2-----------2-----------------------------2--3--------3--|
A|--3--------3-----------------2--0--------0-----------------|
E|-----------------3--------3--------------------------------|

E|-----------------------------------------------3--3--0-----|
B|--3--3--1--3-----3--3--1--3-----3--3--1--3-----1--1--1-----|
G|--0--0--0--0-----0--0--0--0-----2--2--2--2-----2-----------|
D|--2-----------2-----------------------------2--3-----------|
A|--3--------3-----------------2--0--------0-----------------|
E|-----------------3--------3--------------------------------|

E|-----------------------------------------------------------|
B|--3-----1--0--1-----------1--------------------------------|
G|-----2-----------------0-----0-----0-----------------------|
D|--3-----------------2-----------2--------------------------|
A|-----------------3-----------------------------------------|
E|-----------------------------------------------------------|

Outro:

E|--------0-------------0-1--0--0-----------------0--3--3s5--|
B|--1--3--------1------------------3-----------3-------------|
G|-----------0-----0--0--------------------0-----------------|
D|--------------------------------------0--------------------|
A|--------3-------------3-3----------------------------------|
E|-----------------------------------3------------------1----|

E|------------5--3--0--0-------------------------------------|
B|------------------------3-----------3----------------------|
G|---0-----0-----------------------0-------------------------|
D|------------------------------0--------0-------------------|
A|-----------------------------------------------------------|
E|------1-----1--------------3-------------------------------|

E|--5s7--7s8--8--7--3p0--3s5----5--3--0--0-------------------|
B|------------------------------------------3--------3-1p0-1-|
G|-------------------------------------------------0-------0-|
D|-----------------------------------------------0---------2-|
A|---------------------------------------------------------3-|
E|-------5----5-----------1--1--1--------------3-------------|

Tap to rate this tab
 
# A B C D E F G H I J K L M N O P Q R S T U V W X Y Z