Song name
# A B C D E F G H I J K L M N O P Q R S T U V W X Y Z

Christoffer Brandsborg - Youll Be In My Heart tab

A friend of mine asked me to make an guitar arrangement of this song, so here it is. I 
didn't spend very much time with it, so it isn't perfect...
If something is wrong, please tell me!
I will upload a video of me playing this arrangement on my youtube channel.
http://youtube.com/tomanu7 (check it out if you want to)

Title: You'll Be In My Heart - Phil Collins (Arranged by Christoffer Brandsborg)
Capo: No CAPO, or 1,2 fret.
Chords Used: G, C, A

Lyrics & Tabs:


Intro:

E|-----------------------------------------------------------|
B|-----------------------------------------------------------|
G|----------------2--2--4--2p0-------------------------------|
D|--0--x--0--x----0--0--0--0----2--0--x----------------------|
A|-----x-----x------------------------x----------------------|
E|--3--x--3--x--3----3----------3--3--x----------------------|

E|-----------------------------------------------------------|
B|-----------------------------------------------------------|
G|----------------2--2--4--2p0-------------------------------|
D|--0--x--0--x----0--0--0--0----2--0--x----------------------|
A|-----x-----x------------------------x----------------------|
E|--3--x--3--x--3----3----------3--3--x----------------------|

1 Vers:

Come, stop your crying, it'd be all right
Just take my hand, hold it tight
I will protect you from all around you
I will be here, don't you cry

E|-------x-----------x-------------x--------x----------------|
B|----3--3--0--0-----x-------------x--0-----x----------------|
G|----0--0--0--0-----x--2p0--2-----x--------x----------------|
D|----0--0--0--0--0--x-------0--0--x-----0--x----------------|
A|-------x-----------x-------------x--------x----------------|
E|--3----x-----3-----x-------3-----x--3-----x----------------|

E|-------x-----------x--------x------------------------------|
B|----3--3--0--0-----x--------3--0---------------------------|
G|----0--0--0--0-----x--2-----x-------0----------------------|
D|----0--0--0--0--0--x--0--0--0--0--0------------------------|
A|-------x-----------x--------x------------------------------|
E|--3----x-----3-----x--3-----3--3---------------------------|

E|-------x--------------------x-----------0------------------|
B|-------x--0---------------0-x-------0-----0----------------|
G|----2--2----2p0-----2-2-2---x---2-2---2-----2~~------------|
D|----0--0----0-----0---------x---------------0~~------------|
A|--3----x----3---3---3-3-3---x-3-3-3-3-3-3---0~~------------|
E|-------x--------------------x-------------0----------------|

2 Vers:

For one so small, you seem so strong.
My arms will hold you keep you safe and warm,
This bond between us cant be broken,
I will be here dont you cry

E|-------x-----------x-------------x--------x----------------|
B|----3--3--0--0-----x-------------x--0-----x----------------|
G|----0--0--0--0-----x--2p0--2-----x--------x----------------|
D|----0--0--0--0--0--x-------0--0--x-----0--x----------------|
A|-------x-----------x-------------x--------x----------------|
E|--3----x-----3-----x-------3-----x--3-----x----------------|

E|-------x-----------x--------x------------------------------|
B|----3--3--0--0-----x--------3--0---------------------------|
G|----0--0--0--0-----x--2-----x-------0----------------------|
D|----0--0--0--0--0--x--0--0--0--0--0------------------------|
A|-------x-----------x--------x------------------------------|
E|--3----x-----3-----x--3-----3--3---------------------------|

E|-------x--------------------x-----------0------------------|
B|-------x--0---------------0-x-------0-----0----------------|
G|----2--2----2p0-----2-2-2---x---2-2---2-----2~~------------|
D|----0--0----0-----0---------x---------------0~~------------|
A|--3----x----3---3---3-3-3---x-3-3-3-3-3-3---0~~------------|
E|-------x--------------------x-------------0----------------|

Chorus:

'Cos you'll be in my heart,
yes you'll be in my heart,
From this day on now and forever more.

You'll be in my heart,
No matter what they say,
You'll be here in my heart,
Always.

E|-----------------------------------0-----------------------|
B|-----------3-----------------------------------------------|
G|--0h2--2-----2p0------0---0h2--2-------0h2-0------0--------|
D|-------4-4---------0-----------4-4---4---------0-----------|
A|-------5---5-------------------5---5-----------------------|
E|-----------------3---------------------------3-------------|

E|-----------------------------2-2---------------------------|
B|------------3-3------------------0-------------------------|
G|--0-2-2---2-------2-0--0---0-------2-----------------------|
D|------4-4-------4------0-0---------0-----------------------|
A|------5-----5-5--------------------0-----------------------|
E|-----------------------3-----3-----------------------------|

E|-----------------------------------0-----------------------|
B|-----------3-----------------------------------------------|
G|--0h2--2-----2p0------0---0h2--2-------0h2-0------0--------|
D|-------4-4---------0-----------4-4---4---------0-----------|
A|-------5---5-------------------5---5-----------------------|
E|-----------------3---------------------------3-------------|

E|-----------------------------------------------------------|
B|------------3-3--------------------------------------------|
G|--0-2-2---2-------2-0--0---0-------------------------------|
D|------4-4-------4------0-0---0--4---2----------------------|
A|------5-----5-5-----------------3-3-3----------------------|
E|-----------------------3-----------------------------------|

3 Vers:

Why can't they understand the way we feel,
They just don't trust what they cant explain.
How know your different
Deep inside us, where not that different at all.

E|-------x-----------x-------------x--------x----------------|
B|----3--3--0--0-----x-------------x--0-----x----------------|
G|----0--0--0--0-----x--2p0--2-----x--------x----------------|
D|----0--0--0--0--0--x-------0--0--x-----0--x----------------|
A|-------x-----------x-------------x--------x----------------|
E|--3----x-----3-----x-------3-----x--3-----x----------------|

E|-------x-----------x--------x------------------------------|
B|----3--3--0--0-----x--------3--0---------------------------|
G|----0--0--0--0-----x--2-----x-------0----------------------|
D|----0--0--0--0--0--x--0--0--0--0--0------------------------|
A|-------x-----------x--------x------------------------------|
E|--3----x-----3-----x--3-----3--3---------------------------|

E|-------x--------------------x-----------0------------------|
B|-------x--0---------------0-x-------0-----0----------------|
G|----2--2----2p0-----2-2-2---x---2-2---2-----2~~------------|
D|----0--0----0-----0---------x---------------0~~------------|
A|--3----x----3---3---3-3-3---x-3-3-3-3-3-3---0~~------------|
E|-------x--------------------x-------------0----------------|

Chorus:

And you'll be in my heart,
yes you'll be in my heart,
From this day on now and forever more.

E|-----------------------------------0-----------------------|
B|-----------3-----------------------------------------------|
G|--0h2--2-----2p0------0---0h2--2-------0h2-0------0--------|
D|-------4-4---------0-----------4-4---4---------0-----------|
A|-------5---5-------------------5---5-----------------------|
E|-----------------3---------------------------3-------------|

E|-----------------------------2-2---------------------------|
B|------------3-3------------------0-------------------------|
G|--0-2-2---2-------2-0--0---0-------2-----------------------|
D|------4-4-------4------0-0---------0-----------------------|
A|------5-----5-5--------------------0-----------------------|
E|-----------------------3-----3-----------------------------|

Bridge/Vers 4:

Don't listen to them, 'cos what do they know.(what do they know)
We need each other, to have to hold.
They'll see in time, I know.

E|-----------x----------------x------------------------------|
B|-----3--3--x--2---x---------x--2---------------------------|
G|-----2--2--x--2---x--2-4-4--x--2---------------------------|
D|-----2--2--x--2-2-x----2-2--x--2---------------------------|
A|--0--0--0--x--0---x----0-0--x--0---------------------------|
E|-----------x------x---------x------------------------------|

E|-----------x---------------0-------------------------------|
B|-----3--3--x--2---x-----------2----------------------------|
G|-----2--2--x--2---x--2-4------2----------------------------|
D|-----2--2--x--2-2-x----2-2----2----------------------------|
A|--0--0--0--x--0---x----0---0--0----------------------------|
E|-----------x------x----------------------------------------|

E|--0--0--------------------0--------------------------------|
B|-----------2-----------2------3----------------------------|
G|---------2-----2-----2--------0----------------------------|
D|-------2-----2-----2----------0----------------------------|
A|-----0-----0-----0-----------------------------------------|
E|--------------------------3---3----------------------------|

Bridge 2/Vers 5:

When destiny calls you, you must be strong
(you godda be strong)
I may not be with you, but you got to hold on.
They'll see in time, I know.

E|-----------x----------------x------------------------------|
B|-----3--3--x--2---x---------x--2---------------------------|
G|-----2--2--x--2---x--2-4-4--x--2---------------------------|
D|-----2--2--x--2-2-x----2-2--x--2---------------------------|
A|--0--0--0--x--0---x----0-0--x--0---------------------------|
E|-----------x------x---------x------------------------------|

E|-----------x---------------0-------------------------------|
B|-----3--3--x--2---x-----------2----------------------------|
G|-----2--2--x--2---x--2-4------2----------------------------|
D|-----2--2--x--2-2-x----2-2----2----------------------------|
A|--0--0--0--x--0---x----0---0--0----------------------------|
E|-----------x------x----------------------------------------|

E|--0--0--------------------0-0------------------------------|
B|-----------2-----------2------3----------------------------|
G|---------2-----2-----2--------0----------------------------|
D|-------2-----2-----2----------0----------------------------|
A|-----0-----0-----0-----------------------------------------|
E|----------------------------3-3----------------------------|

Chorus:

'Cos you'll be in my heart,
yes you'll be in my heart,
From this day on now and forever more.

You'll be in my heart,
No matter what they say,
You'll be here in my heart,
Always.

E|-----------------------------------0-----------------------|
B|-----------3-----------------------------------------------|
G|--0h2--2-----2p0------0---0h2--2-------0h2-0------0--------|
D|-------4-4---------0-----------4-4---4---------0-----------|
A|-------5---5-------------------5---5-----------------------|
E|-----------------3---------------------------3-------------|

E|-----------------------------2-2---------------------------|
B|------------3-3------------------0-------------------------|
G|--0-2-2---2-------2-0--0---0-------2-----------------------|
D|------4-4-------4------0-0---------0-----------------------|
A|------5-----5-5--------------------0-----------------------|
E|-----------------------3-----3-----------------------------|

E|-----------------------------------0-----------------------|
B|-----------3-----------------------------------------------|
G|--0h2--2-----2p0------0---0h2--2-------0h2-0------0--------|
D|-------4-4---------0-----------4-4---4---------0-----------|
A|-------5---5-------------------5---5-----------------------|
E|-----------------3---------------------------3-------------|

E|-----------------------------------------------------------|
B|------------3-3--------------------------------------------|
G|--0-2-2---2-------2-0--0---0-------------------------------|
D|------4-4-------4------0-0---0--4---2----------------------|
A|------5-----5-5-----------------3-3-3----------------------|
E|-----------------------3-----------------------------------|

Outro:

Just look over your shoulder.

E|-----------------------------------------------------------|
B|--0-1-3---1-0-1--------------------------------------------|
G|--0-0-0---0-----0------------------------------------------|
D|--0-0-0---0------------------------------------------------|
A|-----------------------------------------------------------|
E|--3---3-----------3-3-3------------------------------------|

E|-----------------------------------------------------------|
B|--0-1-3---1-0-1--------------------------------------------|
G|--0-0-0---0-----0------------------------------------------|
D|--0-0-0---0------------------------------------------------|
A|-----------------------------------------------------------|
E|--3---3-----------3-3-3------------------------------------|

E|-----------------------------------------------------------|
B|--0-1-3---1-0-1--------------------------------------------|
G|--0-0-0---0-----0------------------------------------------|
D|--0-0-0---0------------------------------------------------|
A|-----------------------------------------------------------|
E|--3---3-----------3-3-3------------------------------------|

E|-----------------------------------------------------------|
B|--0-1-3---1-0-1p0------------------------------------------|
G|--0-0-0---0-------0-0--------------------------------------|
D|--0-0-0---0---------0--------------------------------------|
A|--------------------2--------------------------------------|
E|--3---3-------------3~~------------------------------------|


The last part is a little bit fucked up, but the beginning is quite good i think.

Tab Info Help:

~~ = vibrato
p = Pull Of
x = Muted stroke (rhytme)
Tap to rate this tab
 
# A B C D E F G H I J K L M N O P Q R S T U V W X Y Z