Christoffer Brandsborg - What Are Words tab

Title: What Are Words - Chris Medina (Christoffer Brandsborg arrangement)
Tuning: ECDGAD
Capo: 5th fret

Lyrics & Tabs:

Intro:

D|--7-9-7-5-------5-9-7-------7-9-7-5-------5---4-2----------|
A|----------7-------------5-----------5---5-------------5----|
G|--------------5-------0---0-----------0-----0-------0---0--|
D|------------5-------0---------------0-----0----------------|
C|----------0-----0------------------------------------------|
E|--------------------------------------------------0--------|

D|--7-9-7-5-------5---9-7-------7-5-----(5)------------------|
A|----------7-----------------5-------(5)--------------------|
G|--------------5---5-------0-------0------------------------|
D|------------5-----------0----------------------------------|
C|----------0-----0------------------------------------------|
E|-----------------------------------------------------------|

Anywhere you are, I am near
Anywhere you go, I'll be there
Anytime you whisper my name, you'll see
How every single promise I keep
Cuz what kind of guy would I be
If I was to leave when you need me most

1 vers:

D|-----------------------------------------------------------|
A|-----------------------------------------------------------|
G|--2-4-2-0-------0-----4-2-----0--2-4-2-0-------------------|
D|----------2-----------------0------------0-----5-4-2---2-0-|
C|----------0-0-0-0-0-0-----2--------------------------0-----|
E|-----------------------------------------3-3-3-------------|

D|-----------------------------------------------------------|
A|-----------------------------------------------------------|
G|--2-4-2-0-----0-4-2-----2-0-4------------------------------|
D|----------2-----------0---------0--------------------------|
C|----------0-0-------2--------------------------------------|
E|------------------------------0---0------------------------|

D|-----------------------------------------------------------|
A|-----------------------------------------------------------|
G|-2-2-4-2-0-------0-----4-2-----0--2-4-2-0------------------|
D|-----------2-----------------0------------0-----5-4-2---2-0|
C|-----------0-0-0-0-0-0-----2--------------------------0----|
E|------------------------------------------3-3-3------------|

D|-----------------------------------------------------------|
A|-----------------------------------------------------------|
G|--2-4-2-0-----0-4-2-----2-0-0-----0------------------------|
D|----------2-----------0---------0---0----------------------|
C|----------0-0-------2--------------------------------------|
E|------------------------------3----------------------------|

What are words
If you really don't mean them
When you say them
What are words
If they're only for good times
Then they don't
When it's love
Yeah, you say them out loud
Those words, They never go away
They live on, even when we're gone

Chorus:

D|----5-4-2---2-0-2-0-2-2---0-0-----0------------------------|
A|--------5---------------------0h2-------2-------2----------|
G|--0-------0-------------0-------------0---0---0---0--------|
D|----------------------0------------------------------------|
C|--------0---0---0------------------------------------------|
E|------------------------------------0-------0--------------|

D|----5-4-2---2-0-2-0-2-2---0-0-0h2--------------------------|
A|--------5-------------------------2---------2--------------|
G|--0-------0-------------0---------------0-----0---0--------|
D|----------------------0---------------0---0-----0----------|
C|--------0---0---0------------------------------------------|
E|------------------------------------0----------------------|

D|----5-4-2---2-0-2-0-2---4-------4-----5-5-0-----0h2--------|
A|--------5-------------5-5---5-------5-5-5---0h2------------|
G|--0-------0-------------0-0---0---0---0-0------------------|
D|------------------------0----------------------------------|
C|--------0---0---0------------------------------------------|
E|-----------------------------------------------------------|

D|-----------------------------------------------------------|
A|------2---------------2-2h3---------2-2-2h3-0-----0--------|
G|------0-0---0-----0-------------0---------------0---0------|
D|----0-----0-----0---0---------0---0-----------0-------0----|
C|----------------------------0------------------------------|
E|--0-----------0--------------------------------------------|

And I know an angel was sent just for me
And I know I'm meant to be where I am
And I'm gonna be
Standing right beside her tonight
And I'm gonna be by your side
I would never leave when she needs me most

2 Vers:

D|-----------------------------------------------------------|
A|-----------------------------------------------------------|
G|--2-4-2-0-------0-----4-2-----0--2-4-2-0-------------------|
D|----------2-----------------0------------0-----5-4-2---2-0-|
C|----------0-0-0-0-0-0-----2--------------------------0-----|
E|-----------------------------------------3-3-3-------------|

D|-----------------------------------------------------------|
A|-----------------------------------------------------------|
G|--2-4-2-0-----0-4-2-----2-0-4------------------------------|
D|----------2-----------0---------0--------------------------|
C|----------0-0-------2--------------------------------------|
E|------------------------------0---0------------------------|

D|------------------------------------------0---2------------|
A|------------------------------------------------2-3-2------|
G|-2-2-4-2-0-------0-----4-2-----0--2-4-2-4---4-----------0--|
D|-----------2-----------------0-----------------------------|
C|-----------0-0-0-0-0-0-----2----------------------------0--|
E|------------------------------------------0----------------|

D|-----------------------------------------------------------|
A|-----------------------------------------------------------|
G|--2-4-2-0-----0-4-2-----2-0-0-----0------------------------|
D|----------2-----------0---------0---0----------------------|
C|----------0-0-------2--------------------------------------|
E|------------------------------3----------------------------|

What are words
If you really don't mean them
When you say them
What are words
If they're only for good times
Then they don't
When it's love
Yeah, you say them out loud
Those words, They never go away
They live on, even when we're gone


Chorus:

D|----5-4-2---2-0-2-0-2-2---0-0-----0------------------------|
A|--------5---------------------0h2-------2-------2----------|
G|--0-------0-------------0-------------0---0---0---0--------|
D|----------------------0------------------------------------|
C|--------0---0---0------------------------------------------|
E|------------------------------------0-------0--------------|

D|----5-4-2---2-0-2-0-2-2---0-0-0h2--------------------------|
A|--------5-------------------------2---------2--------------|
G|--0-------0-------------0---------------0-----0---0--------|
D|----------------------0---------------0---0-----0----------|
C|--------0---0---0------------------------------------------|
E|------------------------------------0----------------------|

D|----5-4-2---2-0-2-0-2---4-------4-----5-5-0-----0h2--------|
A|--------5-------------5-5---5-------5-5-5---0h2------------|
G|--0-------0-------------0-0---0---0---0-0------------------|
D|------------------------0----------------------------------|
C|--------0---0---0------------------------------------------|
E|-----------------------------------------------------------|

D|-----------------------------------------------------------|
A|------2---------------2-2h3---------2-2-2h3-0-----0--------|
G|------0-0---0-----0-------------0---------------0---0------|
D|----0-----0-----0---0---------0---0-----------0-------0----|
C|----------------------------0------------------------------|
E|--0-----------0--------------------------------------------|

Anywhere you are, I am near
Anywhere you go, I'll be there
And I'm gonna be here forever more
Every single promise I keep
Cuz what kind of guy would I be
If I was to leave when you need me most
I'm forever keeping my angel close

3 Vers:

D|-----------------------------------------------------------|
A|-----------------------------------------------------------|
G|--2-4-2-0-------0-----4-2-----0--2-4-2-0-------------------|
D|----------2-----------------0------------0-----5-4-2---2-0-|
C|----------0-0-0-0-0-0-----2--------------------------0-----|
E|-----------------------------------------3-3-3-------------|

D|-----------------------------------------------------------|
A|-----------------------------------------------------------|
G|--2-4-2-0-----0-4-2-----2-0-4------------------------------|
D|----------2-----------0---------0--------------------------|
C|----------0-0-------2--------------------------------------|
E|------------------------------0---0------------------------|

D|-----------------------------------------------------------|
A|-----------------------------------------------------------|
G|-2-2-4-2-0-------0-----4-2-----0--2-4-2-0------------------|
D|-----------2-----------------0------------0-----5-4-2---2-0|
C|-----------0-0-0-0-0-0-----2--------------------------0----|
E|------------------------------------------3-3-3------------|

D|-----------------------------------------------------------|
A|-----------------------------------------------------------|
G|--2-4-2-0-----0-4-2-----2-0-0-----0------------------------|
D|----------2-----------0---------0---0----------------------|
C|----------0-0-------2--------------------------------------|
E|------------------------------3----------------------------|

D|--7-9-7-5-------5---9-7-------7-5-----(5)------------------|
A|----------7-----------------5-------(5)--------------------|
G|--------------5---5-------0-------0------------------------|
D|------------5-----------0----------------------------------|
C|----------0-----0------------------------------------------|
E|-----------------------------------------------------------|


It's not 100 % correct, because i don't play it the same way everytime. You have to use 
your ears sometimes to find some extra notes!
If you want to watch me playing it, watch my videoes on my youtubechannel: 
http://www.youtube.com/chrisbrandsborg

Rate the tab please!
Tap to rate this tab
 
# A B C D E F G H I J K L M N O P Q R S T U V W X Y Z