Christoffer Brandsborg - Hope Original tab

Title: Hope "Original"
Composed by: Christoffer Brandsborg
Capo: No capo 
Tuning: FACFCF 

Tips: Watch the video of this song while learning, because then It's easier to learn! 
Link to youtube video: http://www.youtube.com/watch?v=M_fXHn6KBNM 

Tab: 

Intro & Vers: 

F|-------------------------------------0-2-------2---0-------|
C|-------0---5---4-------0---------------------0-------------|
F|-----0---------------0-----0-4-----4-------0-----0---0-----|
C|---0-----0---0-----0-----0-------0-------------------------|
A|-5-----------------------------0---------3-----3-----------|
F|-----------------5-----------------------------------------|

F|-----------------------------------------------------------|
C|-------0---5---4-------0-----------------------------------|
F|-----0---------------0-----0-4-----4s2p0-2-----2---0-------|
C|---0-----0---0-----0-----0-------0-----------0---0---------|
A|-5-----------------------------0-----------3---------------|
F|-----------------5-----------------------------------------|

F|-------------------------------------0-2-----4-2---0-------|
C|-------0---5---4-------0-----------------------------------|
F|-----0---------------0-----0-4-----4-------0-----0---0-----|
C|---0-----0---0-----0-----0-------0-------------------------|
A|-5-----------------------------0---------3---3-------------|
F|-----------------5-----------------------------------------|

F|-----------------------------------------------------------|
C|-------0---5---4-------0---------------------------0-------|
F|-----0---------------0-----0-4-----4s2p0-2-----2-----------|
C|---0-----0---0-----0-----0-------0-----------0---0---------|
A|-5-----------------------------0-----------3---------------|
F|-----------------5-----------------------------------------|

Chorus & 1st Tapping Solo: 

F|-0-2-------0-----0-4-------0-----0-5-------5---4s2p0-2-----|
C|---------0-----0---------0-----0---------0-----------------|
F|-------0-----0---------0-----0---------0-----0-------------|
C|-----------------------------------------------------------|
A|-----------------------------------------------------------|
F|-----0---------------4---------------5-----5---------------|

F|-------------0-2-------0-----0-4-------0-----0-5-------7-5-|
C|-----0---------------0-----0---------0-----0---------0-----|
F|---0---0---0-------0-----0---------0-----0---------0-------|
C|-0-------0-------------------------------------------------|
A|-----------------------------------------------------------|
F|-----------------0---------------4---------------5-----5---|

F|---4s2p0-2-----------------0-----------0-----0---------0---|
C|---------------0---0-----0---0---0-------0---0-----------0-|
F|-0-----------0---0-----0-------0---7s9-----0-0h9---s11-----|
C|-----------0---------5-------------5---------5---7---------|
A|---------------------5-------------5---------5---7---------|
F|---------------------5-------------5---------5---7---------|

F|---0--------0--------0------------------------0------0-----|
C|---0h9---p0-0h7---p0-0h5---p0-h4s5p0h4s5---p0-0--------0---|
F|-0-0--------0--------0------------------------0h9s11-----0-|
C|---7---5----5---7----7---9---------------7----7------------|
A|---7---5----5---7----7---9---------------7----7------------|
F|-------5--------7--------9---------------7-----------------|
            D U D
F|-0--------0-0-0--------------------------------------------|
C|-0h9---p0-0-0-0h7------------------------------------------|
F|-0--------0-0-0--------------------------------------------|
C|-7---5----5---5---7----------------------------------------|
A|-7---5----5---5---7----------------------------------------|
F|-----5--------5---7----------------------------------------|

Chorus: 

F|-0-2-------0-----0-4-------0-----0-5-------5---4s2p0-2-----|
C|---------0-----0---------0-----0---------0-----------------|
F|-------0-----0---------0-----0---------0-----0-------------|
C|-----------------------------------------------------------|
A|-----------------------------------------------------------|
F|-----0---------------4---------------5-----5---------------|

F|-------------0-2-------0-----0-4-------0-----0-5-------7-5-|
C|-----0---------------0-----0---------0-----0---------0-----|
F|---0---0---0-------0-----0---------0-----0---------0-------|
C|-0-------0-------------------------------------------------|
A|-----------------------------------------------------------|
F|-----------------0---------------4---------------5-----5---|

F|---4s2p0-2-------------------------------------------------|
C|---------------0---0---------------------------------------|
F|-0-----------0---0-----------------------------------------|
C|-----------0-----------------------------------------------|
A|-----------------------------------------------------------|
F|-----------------------------------------------------------|

2th Vers & 1st Bridge :

F|-------------------------------------0-2-----4-2---0-------|
C|-------0---5---4-------0-----------------------------------|
F|-----0---------------0-----0-4-----4-------0-----0---0-----|
C|---0-----0---0-----0-----0-------0-------------------------|
A|-5-----------------------------0---------3---3-------------|
F|-----------------5-----------------------------------------|

F|-----------------------------------------------------------|
C|-------0---5---4-------0---------------------------0-------|
F|-----0---------------0-----0-4-----4s2p0-2-----2-----------|
C|---0-----0---0-----0-----0-------0-----------0---0---------|
A|-5-----------------------------0-----------3---------------|
F|-----------------5-----------------------------------------|

F|-----------------------------0-7-------7-----------7-------|
C|-------0---5---4-------4-5s7---------7---7-------7---------|
F|-----0---------------0-------------0-------0---0-----------|
C|---0-----0---0-----0---------------------------------------|
A|-5---------------------------------------------------------|
F|-----------------5---------------0-----------0-------------|

F|-7-5-4-4-----0-----------0-0-0-7-------7-----------7-------|
C|-----------0---0-------0-------------7---7-------7---------|
F|---------0-------0---0-------------0-------0---0-----------|
C|-----------------------------------------------------------|
A|-----------------------------------------------------------|
F|-------5-----------5-------------0-----------0-------------|

F|-7-5-4-5-----0------------0-5-4s2p0-2----------------------|
C|-----------0---0--------0-----------------0----------------|
F|---------0-------0----0-----------------0---0---0----------|
C|--------------------------------------0-------0------------|
A|-----------------------------------------------------------|
F|-------5------------5--------------------------------------|

2nd Tapping Solo: 

F|-------0---------------------------0------0h4---p0-0-------|
C|-----0-------------------0-0---------0----0--------0-------|
F|---0---------------------0-0h2h4h5-----p0-0--------0-------|
C|-5-------7---------7-7-7-7-0--------------0---5----5-------|
A|-5-------7-7-7-7-7-7-7-7-7-0--------------0---5----5-------|
F|-5-------7-7-7-7-7-7-7-7-7-0------------------5------------|
   U D                            D U D
F|-0-0-------------0-----0--------0-0-0-9s7p0-0--------------|
C|-0-0h7---p0--------0---0h9---p0-0-0-0-------0h7------------|
F|-0-0--------9s11-----0-0--------0-0-0-------0--------------|
C|---5---7----7----------7---5----5---5-------5---7----------|
A|---5---7----7--------------5----5---5-----------7----------|
F|-------7----7--------------5--------------------7----------|
                      U D             U D 
F|----0------0--------0-0------0------0-0--------------------|
C|-p0-07s9p0-0--------0-0--------0----0-0h9s7---p0---------0-|
F|----0------0h9---p0-0-0h9s11-----p0-0-0----------------0-0-|
C|----7------7---5------5---------------5-----7--------0-0-0-|
A|---------------5------5---------------5-----7----7-7-7-7-7-|
F|---------------5----------------------------7----7-7-7-7-7-|

Chorus: 

F|-0-2-------0-----0-4-------0-----0-5-------5---4s2p0-2-----|
C|---------0-----0---------0-----0---------0-----------------|
F|-------0-----0---------0-----0---------0-----0-------------|
C|-----------------------------------------------------------|
A|-----------------------------------------------------------|
F|-----0---------------4---------------5-----5---------------|

F|-------------0-2-------0-----0-4-------0-----0-5-------7-5-|
C|-----0---------------0-----0---------0-----0---------0-----|
F|---0---0---0-------0-----0---------0-----0---------0-------|
C|-0-------0-------------------------------------------------|
A|-----------------------------------------------------------|
F|-----------------0---------------4---------------5-----5---|

F|---4s2p0-2-------------------------------------------------|
C|---------------0---0---------------------------------------|
F|-0-----------0---0-----------------------------------------|
C|-----------0-----------------------------------------------|
A|-----------------------------------------------------------|
F|-----------------------------------------------------------|

3rd Vers & 2nd Bridge:

F|-------------------------------------0-2-----4-2---0-------|
C|-------0---5---4-------0-----------------------------------|
F|-----0---------------0-----0-4-----4-------0-----0---0-----|
C|---0-----0---0-----0-----0-------0-------------------------|
A|-5-----------------------------0---------3---3-------------|
F|-----------------5-----------------------------------------|

F|-----------------------------------------------------------|
C|-------0---5---4-------0---------------------------0-------|
F|-----0---------------0-----0-4-----4s2p0-2-----2-----------|
C|---0-----0---0-----0-----0-------0-----------0---0---------|
A|-5-----------------------------0-----------3---------------|
F|-----------------5-----------------------------------------|

F|-----------------------------5-4-------0-------------------|
C|-------0---5---4-------4-5s7---------0---0---0-----0-------|
F|-----0---------------0-------------0-------0-----0---0-----|
C|---0-----0---0-----0---------------------------------------|
A|-5---------------------------------------------------------|
F|-----------------5---------------5-------------5-----------|

F|-0-4-5---s7-------7-------------7-9-7-5-4-------0----------|
C|----------------7---7---7-----7---------------0---0---0----|
F|-------0------0-------0-----0---------------0-------0------|
C|-----------------------------------------------------------|
A|-----------------------------------------------------------|
F|------------0-------------0---------------5----------------|

F|-------0-4-5---s7-------7-------------7-9-7-5-4-------0----|
C|-----0----------------7---7---7-----7---------------0---0--|
F|---0---------0------0-------0-----0---------------0-------0|
C|-----------------------------------------------------------|
A|-----------------------------------------------------------|
F|-5----------------0-------------0---------------5----------|

F|---------0-4s2p0-2-----------------------------------------|
C|-0-----0---------------0-----------------------------------|
F|-----0---------------0---0---0-----------------------------|
C|-------------------0-------0-------------------------------|
A|-----------------------------------------------------------|
F|---5-------------------------------------------------------|

Outro: 

F|-------------------------------------0-2-------2---0-------|
C|-------0---5---4-------0---------------------0-------------|
F|-----0---------------0-----0-4-----4-------0-----0---0-----|
C|---0-----0---0-----0-----0-------0-------------------------|
A|-5-----------------------------0---------3-----3-----------|
F|-----------------5-----------------------------------------|

F|-------------------------------------0-2-----4-2---0h2p0---|
C|-------0---5---4-------0-----------------------------------|
F|-----0---------------0-----0-4-----4-------0-----0---------|
C|---0-----0---0-----0-----0-------0-------------------------|
A|-5-----------------------------0---------3---3-------------|
F|-----------------5-----------------------------------------|

F|---------(12)----------------------------------------------|
C|-4-----0---------------------------------------------------|
F|-----0-----------------------------------------------------|
C|-----------------------------------------------------------|
A|-----------------------------------------------------------|
F|---0-------------------------------------------------------|

What the letters means: 

h = hammer on 
p = pull of 
U = upstroke 
D = downstroke
s = slide 
(12) = Harmonic note on twelve fret

Subscribe my youtube-channel if you like my music! 
Link: http://www.youtube.com/chrisbrandsborg 

Thank you! 
Tap to rate this tab
 
# A B C D E F G H I J K L M N O P Q R S T U V W X Y Z