Christoffer Brandsborg - Ment To Be Original tab

Title: Ment to be "Original" 
Composed by: Christoffer Brandsborg
Capo: No capo
Tuning: ECDGAD

Tabs: 

Intro: 

D|-------------5---7s9---------------------------------------|
A|-----------------------7-----5---3-2-------2---3s5---------|
G|---------------0-----0-----0-------------0---------0-2-----|
D|-0h2s4-4s5---------------0-----0-------0-----0-------------|
C|-----------------------0-----------------------------------|
E|-------0---0-------------------------3-----3---------------|

D|-------------------------5---4h5p4p0-----5-4-0-----5-4-0---|
A|-------2---0-------------------------2---------------------|
G|-----2---------------------0---------0---------2---------0-|
D|---0-----0---0h2s4-4s5---------------2-2-------0-0---------|
C|-------------------------------------0---------------------|
E|-2-----2-----------0---0-----------------------3-----------|

D|-----------------------------------------------------------|
A|-----------------------2---0-------------------------------|
G|-2h4---2-4---5p0-2---2-------------------------------------|
D|-0---0-----0-----0-0-----0---------------------------------|
C|-----------------------------------------------------------|
E|-3-------3-------2-----2-----------------------------------|

D|-------------5---7s9---------------------------------------|
A|-----------------------7-----5---3-2-------2---3s5---------|
G|---------------0-----0-----0-------------0---------0-2-----|
D|-0h2s4-4s5---------------0-----0-------0-----0-------------|
C|-----------------------0-----------------------------------|
E|-------0---0-------------------------3-----3---------------|

D|-------------------------5---4h5p4p0-----5-4-0-----5-4-0---|
A|-------2---0-------------------------2---------------------|
G|-----2---------------------0---------0---------2---------0-|
D|---0-----0---0h2s4-4s5---------------2-2-------0-0---------|
C|-------------------------------------0---------------------|
E|-2-----2-----------0---0-----------------------3-----------|

D|-5s7---5-7s9---------------10---9-7-5h7p5p4-5-------5------|
A|---------------9-10-----10------------------------5---5---5|
G|-----0-------0--------0-------0-----------------0-------0--|
D|--------------------0------0-------------------------------|
C|---------0-------------------------------------------------|
E|-0--------------------------------------------3------------|

Vers 1 & Chorus 1: 

D|-------------------------------------------------0---------|
A|-----2p0-2-------------------------------------------------|
G|-----0---0---0-2-----2-----------2p0-2---------0---0-------|
D|---0-------0-------0---0---0---0-------4s5---5-------------|
C|-----------------------------------------------------------|
E|-3---3---3-------2-------2---2---2---2-----0---------------|

D|---------------------------0-4---5-----5-------------------|
A|-3-----2---2-3---3s5---5-------------5---5---5-----5-------|
G|-----0-------------------0-----0---0-------0-----0---0-----|
D|---0-----0-----0-----0-------------------------------------|
C|-0-------------------------------0-------------0-----------|
E|-----------------------------------------------------------|

D|-0-4---5---9-----7---5---7-------7-9---9s10-----9----------|
A|---------------0-------------0----------------0------------|
G|-----0---0---0-----0---0---0---0-----0------0-----0--------|
D|-------------------------0---------------------------------|
C|---------------------------------------0-------------------|
E|-----------0-----------------------------------------------|

D|-7s5---7---------------------------------------------------|
A|-----------0---9-----10-----12---9-----10-----12-----------|
G|-----0---0---0-----0------0--------0------0----------------|
D|-------0---------0------0------0-0---0------0--------------|
C|---------------0-------------------------------------------|
E|-----------------------------------------------------------|

D|-5-----7-----9---12----------------------------------------|
A|---5-----5------------15-14---12-10---7-----9-----10-------|
G|-----0-----0---0----0---------------------0-----0----------|
D|----------------------------0-------0---0-----0------0-----|
C|-0------------------------------------0--------------------|
E|-----------------0-----------------------------------------|

D|-----------------------------------------------------------|
A|-9-----10-----12---10-----12-----14---12-------------------|
G|---0------0-------------0------0------0--------------------|
D|-0---0------0----0----0------0------0-0--------------------|
C|-----------------------------------------------------------|
E|-------------------0---------------------------------------|

2 Vers & 2 Chorus:

D|-------------------------------------------------0---------|
A|-----2p0-2-------------------------------------------------|
G|-----0---0---0-2-----2-----------2p0-2---------0---0-------|
D|---0-------0-------0---0---0---0-------4s5---5-------------|
C|-----------------------------------------------------------|
E|-3---3---3-------2-------2---2---2---2-----0---------------|

D|---------------------------0-4---5-----5-------------------|
A|-3-----2---2-3---3s5---5-------------5---5---5-----5-------|
G|-----0-------------------0-----0---0-------0-----0---0-----|
D|---0-----0-----0-----0-------------------------------------|
C|-0-------------------------------0-------------0-----------|
E|-----------------------------------------------------------|

D|-0-4---5---9-----7---5---7-------7-9---9s10-----9----------|
A|---------------0-------------0----------------0------------|
G|-----0---0---0-----0---0---0---0-----0------0-----0--------|
D|-------------------------0---------------------------------|
C|---------------------------------------0-------------------|
E|-----------0-----------------------------------------------|

D|-7s5---7---------------------------------------------------|
A|-----------0---9-----10-----12---9-----10-----12-----------|
G|-----0---0---0-----0------0--------0------0----------------|
D|-------0---------0------0------0-0---0------0--------------|
C|---------------0-------------------------------------------|
E|-----------------------------------------------------------|

D|-5-----7-----9---12----------------------------------------|
A|---5-----5------------15-14---12-10---7-----9-----10-------|
G|-----0-----0---0----0---------------------0-----0----------|
D|----------------------------0-------0---0-----0------0-----|
C|-0------------------------------------0--------------------|
E|-----------------0-----------------------------------------|

D|-----------------------------------------------------------|
A|-9-----10-----12---10-----12-----14------------------------|
G|---0------0-------------0------0---------------------------|
D|-0---0------0----0----0------0------0----------------------|
C|-----------------------------------------------------------|
E|-------------------0---------------------------------------|

D|-----------------------------------------------------------|
A|-14s17---15-14---12---10-7-----9-----10--------------------|
G|-----------------------------0-----0-----------------------|
D|-------0-------0----0------0-----0------0------------------|
C|-0-----------------------0---------------------------------|
E|-----------------------------------------------------------|

D|-----------------------------------------------------------|
A|-9-----10-----12---10-----12-----14---12-~~-10-9-----------|
G|---0------0-------------0------0------0--------------------|
D|-0---0------0----0----0------0------0-0----------0---------|
C|-----------------------------------------------------------|
E|-------------------0---------------------------------------|

D|-----------------------------------------------------------|
A|-7-----5---3-2p0-0-~~--------------------------------------|
G|-----0-----------2-----------------------------------------|
D|---0-----0-------0-----------------------------------------|
C|-0---------------2-----------------------------------------|
E|-----------------------------------------------------------|

Outro: 

D|-------------5---7s9---------------------------------------|
A|-----------------------7-----5---3-2-------2---3s5---------|
G|---------------0-----0-----0-------------0---------0-2-----|
D|-0h2s4-4s5---------------0-----0-------0-----0-------------|
C|-----------------------0-----------------------------------|
E|-------0---0-------------------------3-----3---------------|

D|-------------------------5---4h5p4p0-----5-4-0-----5-4-0---|
A|-------2---0-------------------------2---------------------|
G|-----2---------------------0---------0---------2---------0-|
D|---0-----0---0h2s4-4s5---------------2-2-------0-0---------|
C|-------------------------------------0---------------------|
E|-2-----2-----------0---0-----------------------3-----------|

D|-5s7---5-7s9---------------10---9-7-5h7p5p4-5-------5------|
A|---------------9-10-----10------------------------5---5---5|
G|-----0-------0--------0-------0-----------------0-------0--|
D|--------------------0------0-------------------------------|
C|---------0-------------------------------------------------|
E|-0--------------------------------------------3------------|

Thank you! Subscribe to my youtube channel: 

www.youtube.com/chrisbrandsborg 

And check out me playing this song! 
Tap to rate this tab
 
# A B C D E F G H I J K L M N O P Q R S T U V W X Y Z