Song name
# A B C D E F G H I J K L M N O P Q R S T U V W X Y Z

Christoffer Brandsborg - Can You Feel The Love Tonight And Beauty And The Beast tab

Title: Can You Feel The Love Tonight & Beauty And The Beast
Artist: Elton John
Capo: NO
Tuning: EGDGBE
Arranged by: Jason Swanson & Me
Tabbed by: Christoffer Brandsborg (I have changed a lot of parts, so It's not exactly 
the same as in this video)



link to youtube:

http://www.youtube.com/watch?v=Ppk3FUIsrMQ


Tabs:

E|---0-2s3-5-3-----------0-2s3-5-3-------0-2s3-3h5p3---7-8s7-5---5----------|
B|-----------------3-3-------------------------------3---------8-----8---7--|
G|---------------0-------------------------------------------------0---0---7|
D|--5-------------------5---------------5------------------------0----------|
G|-5-----------0-------5------------0--5------------------------------------|
E|-------------------------------------------------------5------------------|

E|---0-2s3-5-3-----------0-2s3-5-3------0-2s3---10p7-----8s7-5---5----------|
B|-----------------3-3------------------------3------8s5-------8-----8---7--|
G|---------------0-------------------------------------------------0---0---7|
D|--5----------0--------5-------------5--------------------------0----------|
G|-5-------------------5-----------0-5----------0---------------------------|
E|-------------------------------------------------------5------------------|

E|-10~--7------10p7-----------------7h8-7-------------0h2-3-------10---7------|
B|--------9s10--------8s5-----5---8-------10----------3-------3-3--------8--5-|
G|--------------------------0---7---------7---7-----0-------0--------------0--|
D|----0---0-------------------------------0-0-----5------------------0--------|
G|-0----------------------5---------0-----------5---------0-------0------5----|
E|------------------0---------------------10----------------------------------|

E|-5h8-7-5---5--------------------------------------------------------------|
B|---------8-------8-7------------------------------------------------------|
G|---------------0-----7----------------------------------------------------|
D|-------------0------------------------------------------------------------|
G|--------------------------------------------------------------------------|
E|-5------------------------------------------------------------------------|

E|-10~--7------10p7----------------7h8-7-------------0h2-3-------10---7-------|
B|--------9s10-------8s5-----5---8-------10----------3-------3-3--------8s7-5-|
G|-------------------------0---7---------7---7-----0-------0------------------|
D|----0---0------------------------------0-0-----5------------------0---------|
G|-0---------------------5---------0-----------5---------0-------0------5-----|
E|-----------------0---------------------10-----------------------------------|

E|-5h8-7-5---------------------------------------------------2s3------------|
B|---------8-----8-----8---8-----8-----8---8---------------3-----1----------|
G|---------------5h7p5-4---4-----5h7p5-4---4-----0-----2s4-------0----------|
D|-------------5---------------5---------------0-----0-----------2---2---2--|
G|-----------0-----------0---0-----------0---0-----0-------------0-0---0----|
E|-5------------------------------------------------------------------------|

E|---------------------------2s3-5-----5s7-5-7s10-------------7-------------|
B|-0h1-1s3-1---------------3-----3---3-3----------8---8-8p7-8---5---5-------|
G|-0---0---0-----0-----2s4-------0-0---0----------0-0---0-------0-0---------|
D|-0h2-2s4-2---0-----0-----------0------------------------------------------|
G|-----------0-----0--------------------------------------------------------|
E|-------------------------------------0----------0-----0-------5-----------|

E|-7h8----7--------------------------------------------2s3------------------|
B|-7---10---8---8-----------0h1-1s3-1----------------3-----1----------------|
G|----------5---5h7p7-4--4--0---0---0-----0------2s4-------0----------------|
D|-0--------5-5-------------0h2-2s4-2---0------0-----------2---2---2--------|
G|----------0---------0-0-------------0------0-------------0-0---0----------|
E|--------------------------------------------------------------------------|

E|---------------------------2s3-5-----5s7-5-7s10-------------7-------------|
B|-0h1-1s3-1---------------3-----3---3-3----------8---8-8p7-8---5---5-------|
G|-0---0---0-----0-----2s4-------0-0---0----------0-0---0-------0-0---------|
D|-0h2-2s4-2---0-----0-----------0------------------------------------------|
G|-----------0-----0------------------------------5-------------------------|
E|-------------------------------------0----------------0-------5-----------|

E|-7h8----7-----------------------------------------------------------------|
B|-7---10---8---8-----------------------------------------------------------|
G|----------5---5h7p7-4--4-----5h7p5-4--------------------------------------|
D|-0--------5-5--------------5----------------------------------------------|
G|----------0---------0-0--0------------------------------------------------|
E|-----------------------------------0--------------------------------------|

E|-10~--7------10p7----------------7h8-7-------------0h2-3-------10---7-------|
B|--------9s10-------8s5-----5---8-------10~~--------3-------3-3--------8s7-5-|
G|-------------------------0---7---------7---7-----0-------0------------------|
D|----0---0------------------------------0-0-----5------------------0---------|
G|-0---------------------5---------0-----------5---------0-------0------5-----|
E|-----------------0----------------------------------------------------------|

E|-5h8-7-5-------------------5h8-7-5-3-2-3----------------------------------|
B|---------8-----8-----8---8-------3-----0----------------------------------|
G|---------------5h7p5-4---4-------2-----0----------------------------------|
D|-------------5-------------------0----------------------------------------|
G|-----------0-----------0--------------------------------------------------|
E|-5-------------------------5-----------3----------------------------------|


There are many notes which isn't written here (and I've changed some parts now,
which is not written down here, so it might be some mistakes!
But this tab was to help you out with the song,
with this tab you should manage to play the whole song! :)

Good luck!


http://www.youtube.com/chrisbrandsborg

SUBSCRIBE!

Rate my tab! :)
Tap to rate this tab
# A B C D E F G H I J K L M N O P Q R S T U V W X Y Z