Song name
# A B C D E F G H I J K L M N O P Q R S T U V W X Y Z

Christoph Und Lollo - Pfingsten tab

-------------------------------------------------------------------------------
                           Pfingsten  - Christoph und Lollo
-------------------------------------------------------------------------------
Tabbed by: Martin Messner
Email: BigBonsai@hotmail.de

Tuning: 

//////////////////////////////////////////////
//                                          //
//  RATING THIS TAB TAKES ABOUT 5 SECONDS   //
//  AND HELPS ME TO IMPROVE MY WORK         //
//                                          //
//////////////////////////////////////////////



I love this Song =) such a chillin mood

e|------2-------2-------2-------2-------1-------1-------3-------3--------|
B|----3---3---3---3---3---3---3---3---1---1---1---1---3---3---3---3------|
G|--------------------------------------------------0--------------------|
D|--0---------------0---------------3-----------------------0------------|
A|----------0---------------0---------------3----------------------------|
E|-----------------------------------------------------------------------|


(If there was a bass: just do the bass line)
G|-----------------------------------------------------------------------|
D|--0---------------0---------------3---------------5--------------------|
A|----------0---------------0---------------3---------------5------------|
E|-----------------------------------------------------------------------|

Thx for rating and comments =)
Tap to rate this tab
# A B C D E F G H I J K L M N O P Q R S T U V W X Y Z