Song name
# A B C D E F G H I J K L M N O P Q R S T U V W X Y Z

Christophe Maerten - Guitar Pro 6 Theme tab

Opening jingle to Guitar Pro 6. Enjoy.

Moderate 90bpm
Let ring

|--------------------0--------------------------------------------|
|-----------------------------------------------------------------|
|--5--6--5--0-----------------------------------2-----------------|
|--------------5--7-----7---5--4--0-----------2----3(bend 1/4)--0-|
|------------------------------------0--3--4----------------------|
|-----------------------------------------------------------------|

|--0------------|
|--0------------|
|--2------------|
|--2------------|
|--0------------|
|---------------|
Tap to rate this tab
 
# A B C D E F G H I J K L M N O P Q R S T U V W X Y Z