Song name
# A B C D E F G H I J K L M N O P Q R S T U V W X Y Z

Christopher Cross - Never Be The Same tab

Christopher Cross
Never Be The Same
Transcribed by Soch Hean

Capo 2nd Fret

Intro: D  G  D  G  D  G  D  G
       Em  C  Em  C  C  D  C  D  C  D
       (Repeat)

Verse: D  G  D  G  D  G  D  G
       Em  C  Em  C  C  D  C  D  C  D
       (Repeat)

Chorus: G    C    D    G
        G    C    D    G

Verse 2: D  G  D  G  D  G  D  G
       Em  C  Em  C  C  D  C  D  C  D
       (Repeat)

Chorus: G    C    D    G
        G    C    D    G

Guitar Solo:  No Capo (not relative to capo)
|-------------------------------------------------------------------------|
|-----5----------5-8--------/10-10~-----13-14-15p14-15-15b17=rp13-12-13---|
|-5h7-------5h7~-----5s7-5------------------------------------------------|
|--------5----------------------------------------------------------------|
|-------------------------------------------------------------------------|
|-------------------------------------------------------------------------|

|-------------------------------------------------------------------------|
|-12h=13p12s10------------------------------------------------------------|
|--------------12--9b=10r-------10-9--------------------------------------|
|------------------------------------10s12--10----------------------------|
|-------------------------10-12----------------10~------------------------|
|-------------------------------------------------------------------------|

|---------7-8-8s10~--7h8-7h8p7-----------------12-------------------------|
|-/8~--10----------------------8-8s10\-----/13----13-15-12-15-13--15b17---|
|-------------------------------------------------------------------------|
|-------------------------------------------------------------------------|
|-------------------------------------------------------------------------|
|-------------------------------------------------------------------------|

|-------------------------------------------------------------------------|
|-15pb17rp13-12-13-12h13p12-----------------------------------------------|
|---------------------------14-12---9b10rb10r~----------------------------|
|-------------------------------------------------------------------------|
|-------------------------------------------------------------------------|
|-------------------------------------------------------------------------|

Verse 3: D  G  D  G  D  G  D  G
       Em  C  Em  C  C  D  C  D  C  D
       (Repeat, this time its a half step higher)

[Chorus] (Play the chorus, its also a half step higher)

[Fade Out]

Chords:
D:   xx0232
G:   320033
Em:  022000
C:   x32010

Legend:
s - slide
pb - prebend
b - bend 
r - release
h - hammeron
p - pulloff
Tap to rate this tab
 
# A B C D E F G H I J K L M N O P Q R S T U V W X Y Z