Song name
# A B C D E F G H I J K L M N O P Q R S T U V W X Y Z

Christopher Cross - Swept Away tab

Title: Swept Away

Artist: Christopher Cross

Tabbed By: CHARLIE EDSEL VALERA

Intro:

E---------------------|------------------------|
B-4--5-4-5---2--5-2-5-|-----0------0------0----|
G-----2-2--------2-2--|----1-1-2---------1-1-2-|
D---2----------2------|---2----2-2------2----2-|
A-0----------0--------|--2-------------2-------|
E---------------------|-0-------------0--------|

Verse:

E------0-0--0-0-|
B-2-2--0-0--0-0-|
G-2-2--1-2--1-2-|
D-2-2--2-2--2-2-|
A-0-0--2-2--2-2-|
E------0-0--0-0-|

Chorus:

E-0--4-----4---2--4------------|
B-0--4--2--4---2--4--2---------|
G-1--4--2--4---2--4--4---------|
D-2--4--2--4---2--4--4---------|
A-2--6--0--6---4--6--2---------|
E-0--4-----4---2--4------------|

E-0--4-----4/---2----|
B-0--4--2--4/5--2--2-|
G-1--4--2--4/4--2--4-|
D-2--4--2--4/6--2--4-|
A-2--6--0--6/4--4--2-|
E-0--4-----4/---2----|

Adlib:

E---------------------|
B-4--5-4-5---2--5-2-5-|
G-----2-2--------2-2--| play 2x
D---2----------2------|
A-0----------0--------|
E---------------------|

2nd chorus:

E-0--4-----4---2--4------------|
B-0--4--2--4---2--4--2---------|
G-1--4--2--4---2--4--4---------|
D-2--4--2--4---2--4--4---------|
A-2--6--0--6---4--6--2---------|
E-0--4-----4---2--4------------|

E-0--4-----4/---2----|
B-0--4--2--4/5--2--2-|
G-1--4--2--4/4--2--4-|
D-2--4--2--4/6--2--4-|
A-2--6--0--6/4--4--2-|
E-0--4-----4/---2----|

E-0--4-----4--2/4/-/--------|
B-0--4--2--4--2/4/0/2-------|
G-1--4--2--4--2/4/2/4-------|
D-2--4--2--4--2/4/2/4-------|
A-2--6--0--6--4/6/0/2-------|
E-0--4-----4--2/4/-/--------|

Adlib:

E-0------|
B-0------|
G-1------|continuous
D-2------|plucking
A-2------|
E-0------|

Bridge:

E-4-----4--2--2---------|
B-4--0--4--2--2---------|
G-4--2--4--2--4---------|
D-4--2--4--2--4---------|
A-6--0--6--4--2---------|
E-4-----4--2------------|
Tap to rate this tab
# A B C D E F G H I J K L M N O P Q R S T U V W X Y Z